» » »

Sebadoh, Rebound Tabs (ver.1)

Artists:  A B C D E F G H I J K L M N O P Q R S T U V W X Y Z # 

Rebound Tabs (ver.1)

Sebadoh Tabs
 Rating:
4/5 (5 votes)
Rebound lessons Tabs too difficult? Try these video lessons and learn fast
                #------------------------------------------------------------------------------##

rebound
performed by sebadoh
written by lou barlow

two chords.  one riff.  and to think it took me almost five months to figure
out.  oh well.  here we go.

rebound can be found on sebadoh's "bakesale" album.
------------------------------------------------------------------------------
---
[chord chart]
       e       d
eb|----0-------2---------------------------------------------------------------|
bb|----0-------3---------------------------------------------------------------|
gb|----1-------2---------------------------------------------------------------|
db|----2-------0---------------------------------------------------------------|
ab|----2-------0---------------------------------------------------------------|
eb|----0-------x---------------------------------------------------------------|
-------------------------------------------------------------------------------|
---
[riff 1]

eb|----------------------------------------------------------------------------|
bb|----------------------------------------------------------------------------|
gb|-------------1--1-1-1-1-1s2-4-----------------------------------------------|
db|-2-2-2-2-2h4----------------------------------------------------------------|
ab|----------------------------------------------------------------------------|
eb|----------------------------------------------------------------------------|
-------------------------------------------------------------------------------|
---

[riff 1] 3x

e
  heartbroken and attractive
             d
a sad sloppy mess
e
  looking for approval
             d
easily impressed

  e
beware they say

but why would I listen
                               d
I need to know what I've been missing
e
  I'm no one you can trust
                           d
all little boy lonely and curious lust

   e
confusion turns me upside down

I'm lost as quickly as I'm found
                        d
soon enough it turns around

on the rebound

[riff 1] 1x

e
  call it fate or true love
                d
never forced romance
e
  fell into a new love
                     d
maybe perfect love by chance

  e
beware they say

but why would I listen
                  d
when it feels this good
e
  no one lives their life
                          d
doing all the things they say they should

    e
confusion turns me upside down

I'm lost as quickly as I'm found
                      d
soon enough it turns around
                e     d
on the rebound
                e     d
on the rebound

on the rebound
                e
on the rebound
            
Submit corrections

comments powered by Disqus
↑ Back to top | Sebadoh Tabs for Rebound. Lyrics for acoustic guitar and electric guitar. Tablatures and chords are parodies/interpretations of the original songs. You may use it for private study, scholarship, research or language learning purposes only