» » »

Not Too Amused Tabs (ver.2)

Artists:  A B C D E F G H I J K L M N O P Q R S T U V W X Y Z # 

Not Too Amused Tabs (ver.2)

Sebadoh
Rating:
2/5 (1 vote)

Hard to play? Try these video lessons and learn fast.
                (Intro)
Tune down a half-step (EbAbDbGbBbEb)

Eb-0-0-0-0-0-0--0-0-0-0-0-0---------------------|
Bb-0-0-0-0-0-0--0-0-0-0-0-0---------------------|
Gb-4-4-4-4-4-4--0-0-0-0-0-0--1-1--1-1--1-1--1-1-|
Db-5-5-5-5-5-5--2-2-2-2-2-2--2-2--0-0--2-2--0-0-|
Ab-5-5-5-5-5-5--3-3-3-3-3-3--2-2--2-2--2-2--2-2-|
Eb-3-3-3-3-3-3--0-0-0-0-0-0--0-0--0-0--0-0--0-0-|

Eb-------------------------------------------|
Bb-------------------------------------------|
Gb-------6-4---------4-2--1-1--1-1--1-1--1-1-|
Db-----5---------2--------2-2--0-0--2-2--0-0-|
Ab---5---------3---3------2-2--2-2--2-2--2-2-|
Eb-3----------------------0-0--0-0--0-0--0-0-|

Eb-------------------------------------------|
Bb-------------------------------------------|
Gb-------6-4---------4-2--1-1--1-1--1-1--1-1-|
Db-----5---------2--------2-2--0-0--2-2--0-0-|
Ab---5---------3---3------2-2--2-2--2-2--2-2-|
Eb-3----------------------0-0--0-0--0-0--0-0-|
            
Hard to play? Try these video lessons and learn fast. | Correct




comments powered by Disqus
↑ Back to top | Tablatures and chords are parodies/interpretations of the original songs. You may use it for private study, scholarship, research or language learning purposes only