» » »

Not Too Amused Tabs (ver.1)

Artists:  A B C D E F G H I J K L M N O P Q R S T U V W X Y Z # 

Not Too Amused Tabs (ver.1)

Sebadoh
Rating:
4/5 (1 vote)

Hard to play? Try these video lessons and learn fast.
                not too amused, by sebadoh

tuned 1/2 step down

[Chords for intro/verse]
eb|--------------------|
Bb|------0-------------|
Gb|---4--0-------------|
Db|---5--2--/6-\4-6-4--|
Ab|---5--3--/7-\5-7-5--|
Eb|---3--3--/7-\5-7-5--|

[Fill]
eb|------------------------------------|
Bb|----------12--10--------------9\-7--|
Gb|----------------------11--9---9\-7--|
Db|------9--------------(9)------9\-7--|
Ab|--/10---10--10----------------7\-5--|
Eb|------------------8-8---8-----0-----|

[Harmonics over verse]
eb|-----------------|
Bb|------7+---------|
Gb|--5+------5+-7+--|
Db|-----------------|
Ab|-----------------|
Eb|-----------------|

[Coda riff]; eventually start tremelo picking these notes
eb|--7-7-8v--7--10-10v---\4---4----|
Bb|-------------------------3---3--|
Gb|--------------------------------|
Db|--------------------------------|
Ab|--------------------------------|
Eb|--------------------------------|

(variation)
eb|--7t--8t-7t--10t-12t-10t---\4t----4t-----|
Bb|-------------------------------3t----3t--|
Gb|-----------------------------------------|
Db|-----------------------------------------|
Ab|-----------------------------------------|
Eb|-----------------------------------------|


[End on]
eb|------|-7t--8t-7t-----|
Bb|------|-----------9t--|
Gb|--4---|---------------|
Db|--5-6-|---------------|
Ab|--5-7-|---------------|
Eb|--3-7-|---------------|

a / is a slide up
a \ is a slide down
a + denotes harmonics
a t denotes tremelo
a v denotes vibrato
            
Hard to play? Try these video lessons and learn fast. | Correct




comments powered by Disqus
↑ Back to top | Tablatures and chords are parodies/interpretations of the original songs. You may use it for private study, scholarship, research or language learning purposes only