» » »

Sebadoh, Mystery Man Tabs (ver.1)

Artists:  A B C D E F G H I J K L M N O P Q R S T U V W X Y Z # 

Mystery Man Tabs (ver.1)

Sebadoh Tabs
 Rating:
4/5 (4 votes)
Mystery Man lessons Tabs too difficult? Try these video lessons and learn fast
1
                Sebadoh - Mystery Man

Tuning:half step down

Just the chords, listen to the strum of the guitar and the meassures the chords are played

Verse
d#|------------------------------------------------------------------|
A#|--10--------------------------------------------------------------|
F#|--9------9----13--------------------------------------------------|
C#|--7------x----x---------------------------------------------------|
G#|--0------7----11--------------------------------------------------|
D#|---------0----0---------------------------------------------------|
     A      E    E/G#
Chorus
d#|--------------------------------------------------------------------------|
A#|--3--/7-\3-/15------------------------------------------------------------|
F#|--2--/7-\2-/14---6-----9--13----------------------------------------------|
C#|--0---0--0--0----x-----x--x-----------------------------------------------|
G#|-----------------4-----7--11----------------------------------------------|
D#|-----------------5-----0--0-----------------------------------------------|
     D              A/C#  E

I don't know the exact way to play the outro, I think Jason Loewenstein plays the chords 
a kind of solo feel, or he plays two guitars on the record. This is the 'base':

d#|------------------------------------------------------------------------|
A#|--10-/14--\12-----------------------------------------------------------|
F#|--9--/13--\11----------------9------------------------------------------|
C#|--7--/11--\9---x4----12--10--9------------------------------------------|
G#|--0---0----0---------10--8---7------------------------------------------|
D#|---------------------10--8---0------------------------------------------|

d#|---------------------------------------------------------------------------|
A#|--10-/14--\12--------------------------------------------------------------|
F#|--9--/13--\11-----------------9-----9--------------------------------------|
C#|--7--/11--\9---x4-----12--10--9--9--9--9--12--10--7------------------------|
G#|--0---0----0----------10--8---7--7--7--7--10--8---5------------------------|
D#|----------------------10--8---0--7--0--7--10--8---5------------------------|
            
Submit corrections

comments powered by Disqus
↑ Back to top | Sebadoh Tabs for Mystery Man. Lyrics for acoustic guitar and electric guitar. 1 Tablatures and chords are parodies/interpretations of the original songs. You may use it for private study, scholarship, research or language learning purposes only