» » »

Got It Chords (ver.1)

Artists:  A B C D E F G H I J K L M N O P Q R S T U V W X Y Z # 

Got It Chords (ver.1)

Sebadoh
Rating:
5/5 (2 votes)

Hard to play? Try these video lessons and learn fast.
                Sebadoh - Got it

Tuning:half step down

intro/main part, here are the chords, listen to the song and you will hear how you'll 
to strum it
d#|----------------------------------------------|
A#|----------------------------------------------|
F#|--9--7--9---7---9--7--7--5--------------------|
C#|--x--x--x---x---x--x--7--5--------------------|
G#|--8--7--12--10--8--7--5--3--------------------|
D#|--------10--8---------5--3--------------------|

This is the riff,
C#|----------------------------------------------|
G#|--------8-------------------------------------|
D#|--5--8----88888-------------------------------|

This is the second part after the riff, which is a little different from the main part:

d#|-------------------------------------------------------------------|
A#|-------------------------------------------------------------------|
F#|--9--7--9--7--9--7--7--5--9--7--9--7--9--7--7--5--7--5--7--5--7--5-|
C#|--x--x--x--x--x--x--7--5--x--x--x--x--x--x--7--5--7--5--7--5--7--5-|
G#|--8--7--8--7--8--7--5--3--8--7--8--7--8--7--5--3--5--3--5--3--5--3-|
D#|--------------------5--3--------------------5--3--5--3--5--3--5--3-|

This is the song:

Intro
riff
Main part
riff
second part
main part
riff (as the outro)
            
Hard to play? Try these video lessons and learn fast. | Correct




comments powered by Disqus
↑ Back to top | Tablatures and chords are parodies/interpretations of the original songs. You may use it for private study, scholarship, research or language learning purposes only