>
 >
Whiskey Ballad

Whiskey Ballad Guitar Tabs

Seasick Steve - Whiskey Ballad chords, tabs, tablatures, lyrics

Guitar lessons | Add/correct | Request | Top 50 tabs Artists:  A B C D E F G H I J K L M N O P Q R S T U V W X Y Z 0-9

Whiskey Ballad Guitar Tabs – Seasick Steve

CD, Sheet music, Poster

Do you like Whiskey Ballad? Share with your friends now
Tabs
I got a request for this song's chords so I made an attempt at it and here are what I 
think are the intro, chords and licks are for "Whiskey Ballad" by Seasick Steve.

Intro

E----0-h-2---------------------|
B----------0-h-2--------0------|
G----------------0-h-1---------|
D------------------------------|
A------------------------------|
E--------------------------0~--|

"Ahhhhhhh"

Verse

E
To all those people living in their flats not so pristine

    A
Who look up from the alleyways at skys that weve all seen

E                                   B
Well some I know they see it from a different point of view

B                                                    E
The red doors painted black the sky is grey not baby blue, so


Chorus

A                            E
Lighten up, have a cup of my happy golden drink

     B                                     E
Itll taste strong to begin with, youll get used to it I think

A
Itll wash away your sorrows

E
Soak up your concerns

     B                                B      B       E
Only problems when you wake up, not a SINGLE TABLES  TURNED, but

B               A             E
Its alright     its alright   its alright


At the start of the verse there's a little lick he plays over the E chord, I think it 
goes like this

E-----------------------------0~------0-3-3-3-0---0~--|
B-----------0-h-2-------0-h-2-------------------3-----|
G----0-h-1--------0-h-1-------------------------------|
D-----------------------------------------------------|
A-----------------------------------------------------|
E-----------------------------------------------------|


"Hoped you Like My Tab"





Comments


Popular Seasick Steve tabs & chords
Its A Long Long Way Chords
Chiggers Intro Tabs
Dog House Boogie 1 Tabs
Hobo Low Tabs
Last Po Man Tabs
One True Tabs
Prospect Lane Tabs
St Louis Slim Tabs
Walking Man Tabs
Long Long Way Ukulele


Song lyrics



↑ Back to top | Tablatures and chords are parodies/interpretations of the original songs. You may use it for private study, scholarship, research or language learning purposes only
© 2014 AZChords.com Contact us | Privacy policy | DMCA | Add/correct tabs | Request tabs | Top 50 tabs