» » »

Search The City, The Rescue Tabs (ver.1)

Artists:  A B C D E F G H I J K L M N O P Q R S T U V W X Y Z # 

The Rescue Tabs (ver.1)

Search The City Tabs
 Rating:
4.4/5 (7 votes)
The Rescue lessons Tabs too difficult? Try these video lessons and learn fast
                -------------------------------------------------------------------------------
-------------------------------------------------------------------------------

Tuning:C#G#C#F#A#D# (to lazy to change all the side keys so just tune it)

INTRO
D#|--0-0-0-0-0---------0-0-0-0-0--0-0------------------10--------------------------------|
A#|--3-3-3-3-0----7h9--3-3-3-3-0--8-7------7---7---7------8------------------------------|
F#|------------7h9---------------------9-9---9---9---9------9-7-5-4--7-------------------|
C#|-----------------------------------------------------------9-7-5--5-------------------|
G#|------------------------------------------------------------------3-------------------|
C#|--------------------------------------------------------------------------------------|

verse chords (strum acordingly)
e|---------------3-3-------------------------------------------------------------------|
B|---8---7---8---3-3-------------------------------------------------------------------|
G|---7---7---7---5-4-------------------------------------------------------------------|
D|---7---7---5---5-5-------------------------------------------------------------------|
A|-(10)--9---7---3-3-------------------------------------------------------------------|
E|-------9-----------------------------------------------------------------------------|

Pre-Chorus (i put the () so peeps would know its one number)
e|---0---0--------------0-0-0-0-0-0-0-------------------------------------------------|
B|---3---8---(12)---3---3s5-5-5-5-5-5-------------------------------------------------|
G|---0---0----0-----0-----------------------------------------------------------------|
D|---4---5----9-----0-----------------------------------------------------------------|
A|---5---7---(10)---3-----------------------------------------------------------------|
E|------------------------------------------------------------------------------------|
Chorus
e|--------------------------------------------------------------------------------------|
B|--3-3-3-3-3-3---3-3-3-3-3-3---3-3-3-3-3----3-3-3---3-3--------------------------------|
G|--0-0-0-0-0-0---0-0-0-0-0-0---0-0-0-0-0----0-0-0---0-0--------------------------------|
D|--0-0-0-0-0-0---0-0-0-0-0-0---0-0-0-0-0----0-0-0---0-0--------------------------------|
A|--2-2-2-2-2-2---3-3-3-3-3-3---5-5-5-5-5----x-x-x---x-x--------------------------------|
E|-----------------------------------------4h5-5-5-4h5-5--------------------------------|

e|--------------------------------------------------------------------------------------|
B|--3-3-3-3-3-3---3-3-3-3-3-3--3-3-3-3-3--3-3-3-3-3-------------------------------------|
G|--0-0-0-0-0-0---0-0-0-0-0-0--0-0-0-0-0--0-0-0-0-0-------------------------------------|
D|--0-0-0-0-0-0---0-0-0-0-0-0--0-0-0-0-0--0-0-0-0-0-------------------------------------|
A|--2-2-2-2-2-2---3-3-3-3-3-3--x-x-x-x-x--5-5-5-5-5-------------------------------------|
E|-----------------------------5-5-5-5-5------------------------------------------------|

e|------------------------------------------------------------------------------------|
B|------------------------------------------------------------------------------------|
G|------------------------------------------------------------------------------------|
D|-5-5-5-5-5-5---5-5-5-5-5-5--7-7-7-7-7-7---------------------------------------------|
A|-2-2-2-2-2-2---3-3-3-3-3-3--5-5-5-5-5-5--4h5-5-5-4h5-5-5----------------------------|
E|-----------------------------------------4h5-5-5-4h5-5-5----------------------------|

e|------------------------------------------------------------------------------------|
B|------------------------------------------------------------------------------------|
G|------------------------------------------------------------------------------------|
D|-5-5-5-5-5-5---5-5-5-5-5-5-------------7-7-7-7--------------------------------------|
A|-2-2-2-2-2-2---3-3-3-3-3-3--5-5-5-5-5--5-5-5-5--------------------------------------|
E|----------------------------5-5-5-5-5-----------------------------------------------|

e|---------------------------------------------------------------------------|
B|---------------------------------------------------------------------------|
G|---------------------------------------------------------------------------|
D|---------------------------------------------------------------------------|
A|---------------------------------------------------------------------------|
E|---------------------------------------------------------------------------|


| /  slide up
| \  slide down
| h  hammer-on
| p  pull-off
| ~  vibrato
| +  harmonic
| x  Mute note
            
Submit corrections

comments powered by Disqus
↑ Back to top | Search The City Tabs for The Rescue. Lyrics for acoustic guitar and electric guitar. Tablatures and chords are parodies/interpretations of the original songs. You may use it for private study, scholarship, research or language learning purposes only