» » »

Searchers, When You Walk In The Room Bass tabs (ver.1)

Artists:  A B C D E F G H I J K L M N O P Q R S T U V W X Y Z # 

When You Walk In The Room Bass tabs (ver.1)

Searchers Tabs
 Rating:
4/5 (4 votes)
When You Walk In The Room lessons Tabs too difficult? Try these video lessons and learn fast
                Released in The UK by The Searchers
Written and originally performed Jackie De Shannon

Intro:
G----------------------------------------------------------------|
D---------------------------------------------7-7-------7-7------|
A--------------------------------------------------7-7------7-7--|
E--5-------5---5---5------5-------5---5---5----------------------|

Verse 1:
G--------------------------------------------------------------------|
D--7-7-------------7-7-------------7-7-------------------------------|
A------7-7-----7-7-----7-7-----7-7-----7-7----------7-7-----7-7------|
E----------5-5-------------5-5-------------5-5--0-0-----7-7-----7-7--|

G--------------------------------------------------------------------|
D------------------7-7-----4-4---------------------------------------|
A--5-5-----7-7---------7-7-----4-4---5-5---4-4---7-------------------|
E------5-5-----7-7--------------------------------00000000-00000000--|

G-----------------------------------|
D--7-7-----7-7-----7-7-----7-7------|
A------7-7-----7-7-----7-7-----7-7--|
E-----------------------------------|

Verse 2:
G--------------------------------------------------------------------|
D--7-7-------------7-7-------------7-7-------------------------------|
A------7-7-----7-7-----7-7-----7-7-----7-7----------7-7-----7-7------|
E----------5-5-------------5-5-------------5-5--0-0-----7-7-----7-7--|

G--------------------------------------------------------------------|
D------------------7-7-----4-4---------------------------------------|
A--5-5-----7-7---------7-7-----4-4---5-5---4-4---7-------------------|
E------5-5-----7-7--------------------------------00000000-00000000--|

G-------------------|
D--7-7-----7-7------|
A------7-7-----7-7--|
E-------------------|

Bridge:
G------------------------------------------------------------|
D-------------------------------------------7-7-----4-4------|
A--5-5---4-4---7-7------5-5---4-4---7-7---------7-7-----4-4--|
E------------------7-7------------------7-7------------------|

G----------4-4-----------------------|
D------4-4-----4-4-------------------|
A--2-2-------------7-7-----77777777--|
E----------------------7-7-----------|

Verse 3:
G--------------------------------------------------------------------|
D--7-7-------------7-7-------------7-7-------------------------------|
A------7-7-----7-7-----7-7-----7-7-----7-7----------7-7-----7-7------|
E----------5-5-------------5-5-------------5-5--0-0-----7-7-----7-7--|

G--------------------------------------------------------------------|
D------------------7-7-----4-4---------------------------------------|
A--5-5-----7-7---------7-7-----4-4---5-5---4-4---7-------------------|
E------5-5-----7-7--------------------------------00000000-00000000--|

G-------------------|
D--7-7-----7-7------|
A------7-7-----7-7--|
E-------------------|

Outro:
G-------------------------------------------------------------------|
D---------------------------------7-7-----7-7-----7--------------7--|
A--5-5---4-4---7----------------------7-7-----7-7-------------------|
E---------------00000000-00000000--------------------------------5--|
            
Submit corrections

comments powered by Disqus
↑ Back to top | Searchers Bass for When You Walk In The Room. Lyrics for acoustic guitar and electric guitar. Tablatures and chords are parodies/interpretations of the original songs. You may use it for private study, scholarship, research or language learning purposes only