» » »

Searchers, Love Potion Number Bass tabs (ver.1)

Artists:  A B C D E F G H I J K L M N O P Q R S T U V W X Y Z # 

Love Potion Number Bass tabs (ver.1)

Searchers Tabs
 Rating:
4/5 (4 votes)
Love Potion Number lessons Tabs too difficult? Try these video lessons and learn fast
1
                "(9)
Searchers - Love potion number 9  basstab

TablEdited by Jan Bjorklund   
You are welcome to request for tabs!
Fingering and positions as suggested by TablEdit, please use common sense.

Tuning : E A D G 	Time Signature: 4/4

 |   |   |   |    |   |   |   |    |   |   |   |    |   |   |   |    |   |   |   |    
|----------------|----------------|----------------|----------------|----------------|
|----------------|----------------|0---------------|----------------|0---------------|
|----------------|0-------------3-|----------------|0-------------3-|----------------|
|--------------3-|----------------|--------------3-|----------------|----------------|

 |   |   |   |    |   |   |   |    |   |   |   |    |   |   |   |    |   |   |   |    
|--------0---2---|--------0---2---|--------2---4---|----------------|----------------|
|------2---------|------2---------|0-----4---------|2---------------|------------2---|
|3---------------|3---------------|----------------|----------------|0-----3-3-------|
|----------------|----------------|----------------|----------------|----------------|

 |   |   |   |    |   |   |   |    |   |   |   |    |   |   |   |    |   |   |   |    
|----------------|----------------|----------------|----------------|----------------|
|------------2---|----------------|0---------------|----------------|0---------------|
|0-----3-3-------|0-------------3-|----------------|0-------------3-|----------------|
|----------------|----------------|--------------3-|----------------|----------------|

 |   |   |   |    |   |   |   |    |   |   |   |    |   |   |   |    |   |   |   |    
|--------0---2---|--------0---2---|--------2---4---|----------------|----------------|
|------2---------|------2---------|0-----4---------|2---------------|------------2---|
|3---------------|3---------------|----------------|----------------|0-------3-------|
|----------------|----------------|----------------|----------------|----------------|

 |   |   |   |    |   |   |   |    |   |   |   |    |   |   |   |    |   |   |   |    
|----------------|----------------|----------------|----------------|----------------|
|------------2---|0---------------|0---------------|------------0---|------------0---|
|0-------3-------|------2---0-----|------2---0-----|2-----2-------4-|2-----2-------4-|
|----------------|------------2-0-|------------2-0-|----------2-----|----------2-----|

 |   |   |   |    |   |   |   |    |   |   |   |    |   |   |   |    |   |   |   |    
|----------------|----------------|----------------|----------------|----------------|
|0---------------|0-------------0-|----------------|----------------|------------2---|
|------2---0-----|------2---0-----|----------------|------------2---|0-------3-------|
|------------2-0-|------------2---|0-------------0-|0---------0---4-|----------------|

 |   |   |   |    |   |   |   |    |   |   |   |    |   |   |   |    |   |   |   |    
|--------------0-|2---------------|------------0---|--------0---2---|--------0---2---|
|0-------4---4---|--------2-------|0-------4-------|------2---------|------2---------|
|----------------|------------3---|----------------|3---------------|3---------------|
|----------------|----------------|----------------|----------------|----------------|

 |   |   |   |    |   |   |   |    |   |   |   |    |   |   |   |    |   |   |   |    
|--------2---4---|----------------|----------------|----------------|----------------|
|0-----4---------|2---------------|------------2---|------------2---|0---------------|
|----------------|----------------|0-------3-------|0-------3-------|------2---0-----|
|----------------|----------------|----------------|----------------|------------2-0-|

 |   |   |   |    |   |   |   |    |   |   |   |    |   |   |   |    |   |   |   |    
|----------------|----------------|----------------|----------------|----------------|
|0---------------|------------0---|------------0---|0---------------|0-------------0-|
|------2---0-----|2-----2-------4-|2-----2-------4-|------2---0-----|------2---0-----|
|------------2-0-|----------2-----|----------2-----|------------2-0-|------------2---|

 |   |   |   |    |   |   |   |    |   |   |   |    |   |   |   |    |   |   |   |    
|----------------|----------------|----------------|--------------0-|2---------------|
|----------------|----------------|------------2---|0-------4---4---|--------2-------|
|----------------|------------2---|0-------3-------|----------------|------------3---|
|0-------------0-|0---------0---4-|----------------|----------------|----------------|

 |   |   |   |    |   |   |   |    |   |   |   |    |   |   |   |    |   |   |   |    
|------------0---|--------0---2---|--------0---2---|--------2---4---|----------------|
|0-------4-------|------2---------|------2---------|0-----4---------|2---------------|
|----------------|3---------------|3---------------|----------------|----------------|
|----------------|----------------|----------------|----------------|----------------|

 |   |   |   |    |   |   |   |    |   |   |   |    |   |   |   |    |   |   |   |    
|----------------|----------------|----------------|----------------|----------------|
|------------2---|2-------2---2---|------------2---|2-------2---2---|------------2---|
|0-------3-------|----------------|0-------3-------|----------------|0-------3-------|
|----------------|----------------|----------------|----------------|----------------|

 |   |   |   |    |   |   |   |    |   |   |   |    |   |   |   |    
|----------------|----------------|----------------|----------------|
|2-------2---2---|------------2---|2-------2---2---|------------2---|
|----------------|0-------3-------|----------------|0-------3-------|
|----------------|----------------|----------------|----------------|
"            
Submit corrections

comments powered by Disqus
↑ Back to top | Searchers Bass for Love Potion Number. Lyrics for acoustic guitar and electric guitar. 1 Tablatures and chords are parodies/interpretations of the original songs. You may use it for private study, scholarship, research or language learning purposes only