>
 >
Farmer John

Farmer John Bass Tabs

Searchers - Farmer John chords, tabs, tablatures, lyrics

Guitar lessons | Add/correct | Request | Top 50 tabs Artists:  A B C D E F G H I J K L M N O P Q R S T U V W X Y Z 0-9

Farmer John Bass Tabs – Searchers

CD, Sheet music, Poster

Do you like Farmer John? Share with your friends now
Bass TabsChordsUkulele
The Searchers
Written by Dewey Terry and Don Harris; released on the album "Meet The 
Searchers".

Intro:
G|------- ------- ------- -------|------- ------- ------- -------|
D|-------------------------------|-------------------------------|
A|-------------------------------|-------------------------------|
E|-------------------------------|-------------------------------|
                                 (drums)


G|------- ------- ------- -------|------- ------- ------- -------|
D|--------7-------5--------------|--------7-------5--------------|
A|------------------------7------|------------------------7------|
E|5------------------------------|5------------------------------|
          Woah, yeah,                 a   -   ha,


G|------- ------- ------- -------|------- ------- ------- -------|
D|--------7-------5--------------|--------7-------5--------------|
A|------------------------7------|------------------------7------|
E|5------------------------------|5------------------------------|
      woah,   yeah,                   a   -   ha,


G|------- 7------ 5------ -------|------- 7------ 5------ -------|
D|------------------------7------|------------------------7------|
A|5------------------------------|5------------------------------|
E|-------------------------------|-------------------------------|
      Woah,   yeah,                   a   -   ha,


G|------- ------- ------- -------|------- ------- ------- -------|
D|--------7-------5--------------|--------7-------5--------------|
A|------------------------7------|------------------------7------|
E|5------------------------------|5------------------------------|
      woah,   yeah,                   a   -   ha,


G|------- 9------ 7------ -------|------- 7------ 5------ -------|
D|------------------------9------|------------------------7------|
A|7------------------------------|5------------------------------|
E|-------------------------------|-------------------------------|
      Woah,   yeah,                   a   -   ha,


G|------- ------- ------- -------|------- ------- ------- -------|
D|--------7-------5--------------|-------------------------------|
A|------------------------7------|-------------------------------|
E|5------------------------------|5------------------------------|
      woah,   yeah!                       Mmm,            Farmer

Verse:
G|------- ------- ------- -------|------- ------- ------- -------|
D|--------7-------5--------------|--------7-------5--------------|
A|------------------------7------|------------------------7------|
E|5------------------------------|5------------------------------|
  John,                               I'm in  love        with your


G|------- ------- ------- -------|------- ------- ------- -------|
D|--------7-------5--------------|--------7-------5--------------|
A|------------------------7------|------------------------7------|
E|5------------------------------|5------------------------------|
  daughter,                           Woah,       woah,       woah,


G|------- 7------ 5------ -------|------- 7------ 5------ -------|
D|------------------------7------|------------------------7------|
A|5------------------------------|5------------------------------|
E|-------------------------------|-------------------------------|
                                      with her Cham - pagne   eyes.


G|------- ------- ------- -------|------- ------- ------- -------|
D|--------7-------5--------------|--------7-------5--------------|
A|------------------------7------|------------------------7------|
E|5------------------------------|5------------------------------|
                                                      Yeah,   she


G|------- 9------ 7------ -------|------- 7------ 5------ -------|
D|------------------------9------|------------------------7------|
A|7------------------------------|5------------------------------|
E|-------------------------------|-------------------------------|
  knows   that I  love her,   yeah,       but she tells   me  lies.


G|------- ------- ------- -------|------- ------- ------- -------|
D|--------7-------5--------------|-------------------------------|
A|------------------------7------|-------------------------------|
E|5------------------------------|5------------------------------|
                                                      I   like the

Bridge:
G|------- 7------ 5------ -------|------- 7------ 5------ -------|
D|------------------------7------|------------------------7------|
A|5------------------------------|5------------------------------|
E|-------------------------------|-------------------------------|
  way     she walks,          the way     she talks,          She


G|------- 7------ 5------ -------|------- 7------ 5------ -------|
D|------------------------7------|------------------------7------|
A|5------------------------------|5------------------------------|
E|-------------------------------|-------------------------------|
  really knocks me out,           causing me  to  shout   woah,


G|------- 9------ 7------ -------|------- ------- ------- -------|
D|------------------------9------|-------------------------------|
A|7------------------------------|7------------------------------|
E|-------------------------------|-------------------------------|
  woah!                               Now look a- here!   Farmer

Verse:
G|------- ------- ------- -------|------- ------- ------- -------|
D|--------7-------5--------------|--------7-------5--------------|
A|------------------------7------|------------------------7------|
E|5------------------------------|5------------------------------|
  John,                               I'm in  love        with your


G|------- ------- ------- -------|------- ------- ------- -------|
D|--------7-------5--------------|--------7-------5--------------|
A|------------------------7------|------------------------7------|
E|5------------------------------|5------------------------------|
  daughter,                           Woah,       woah,       woah,


G|------- 7------ 5------ -------|------- 7------ 5------ -------|
D|------------------------7------|------------------------7------|
A|5------------------------------|5------------------------------|
E|-------------------------------|-------------------------------|
                                      with her Cham - pagne   eyes.


G|------- ------- ------- -------|------- ------- ------- -------|
D|--------7-------5--------------|--------7-------5--------------|
A|------------------------7------|------------------------7------|
E|5------------------------------|5------------------------------|
                                                      Yeah,   she


G|------- 9------ 7------ -------|------- 7------ 5------ -------|
D|------------------------9------|------------------------7------|
A|7------------------------------|5------------------------------|
E|-------------------------------|-------------------------------|
  knows   that I  love her,   yeah,       but she tells   me  lies.


G|------- ------- ------- -------|------- ------- ------- -------|
D|--------7-------5--------------|-------------------------------|
A|------------------------7------|-------------------------------|
E|5------------------------------|5------------------------------|


Break (solo):
G|------- ------- ------- -------|------- ------- ------- -------|
D|--------7-------5--------------|--------7-------5--------------|
A|------------------------7------|------------------------7------|
E|5------------------------------|5------------------------------|
      Woah,   yeah,                   a   -   ha,


G|------- ------- ------- -------|------- ------- ------- -------|
D|--------7-------5--------------|--------7-------5--------------|
A|------------------------7------|------------------------7------|
E|5------------------------------|5------------------------------|
      woah,   yeah,                   a   -   ha,


G|------- 7------ 5------ -------|------- 7------ 5------ -------|
D|------------------------7------|------------------------7------|
A|5------------------------------|5------------------------------|
E|-------------------------------|-------------------------------|
      Woah,   yeah,                   a   -   ha,


G|------- ------- ------- -------|------- ------- ------- -------|
D|--------7-------5--------------|--------7-------5--------------|
A|------------------------7------|------------------------7------|
E|5------------------------------|5------------------------------|
      woah,   yeah,                   a   -   ha,


G|------- 9------ 7------ -------|------- 7------ 5------ -------|
D|------------------------9------|------------------------7------|
A|7------------------------------|5------------------------------|
E|-------------------------------|-------------------------------|
      Woah,   yeah,                   a   -   ha,


G|------- ------- ------- -------|------- ------- ------- -------|
D|--------7-------5--------------|-------------------------------|
A|------------------------7------|-------------------------------|
E|5------------------------------|5------------------------------|
      woah,   yeah!                                   I   like the

Bridge:
G|------- 7------ 5------ -------|------- 7------ 5------ -------|
D|------------------------7------|------------------------7------|
A|5------------------------------|5------------------------------|
E|-------------------------------|-------------------------------|
  way     she walks,          the way     she talks,          She


G|------- 7------ 5------ -------|------- 7------ 5------ -------|
D|------------------------7------|------------------------7------|
A|5------------------------------|5------------------------------|
E|-------------------------------|-------------------------------|
  really knocks me out,           causing me  to  shout   woah,


G|------- 9------ 7------ -------|------- ------- ------- -------|
D|------------------------9------|-------------------------------|
A|7------------------------------|7------------------------------|
E|-------------------------------|-------------------------------|
  woah!                               Now look a- here!   Farmer

Verse:
G|------- ------- ------- -------|------- ------- ------- -------|
D|--------7-------5--------------|--------7-------5--------------|
A|------------------------7------|------------------------7------|
E|5------------------------------|5------------------------------|
  John,                               I'm in  love        with your


G|------- ------- ------- -------|------- ------- ------- -------|
D|--------7-------5--------------|--------7-------5--------------|
A|------------------------7------|------------------------7------|
E|5------------------------------|5------------------------------|
  daughter,                           Woah,       woah,       woah,


G|------- 7------ 5------ -------|------- 7------ 5------ -------|
D|------------------------7------|------------------------7------|
A|5------------------------------|5------------------------------|
E|-------------------------------|-------------------------------|
                                      with her Cham - pagne   eyes.


G|------- ------- ------- -------|------- ------- ------- -------|
D|--------7-------5--------------|--------7-------5--------------|
A|------------------------7------|------------------------7------|
E|5------------------------------|5------------------------------|
                                                      Yeah,   she


G|------- 9------ 7------ -------|------- 7------ 5------ -------|
D|------------------------9------|------------------------7------|
A|7------------------------------|5------------------------------|
E|-------------------------------|-------------------------------|
  knows   that I  love her,   yeah,       but she tells   me  lies.


G|------- ------- ------- -------|------- ------- ------- -------|
D|--------7-------5--------------|-------------------------------|
A|------------------------7------|-------------------------------|
E|5------------------------------|5------------------------------|


Outro:
G|------- ------- ------- -------|------- ------- ------- -------|
D|--------7-------5--------------|--------7-------5--------------|
A|------------------------7------|------------------------7------|
E|5------------------------------|5------------------------------|
      Woah,   yeah,                   a   -   ha,


G|------- ------- ------- -------|------- ------- ------- -------|
D|--------7-------5--------------|--------7-------5--------------|
A|------------------------7------|------------------------7------|
E|5------------------------------|5------------------------------|
      woah,   yeah,                   a   -   ha,


G|------- 7------ 5------ -------|------- 7------ 5------ -------|
D|------------------------7------|------------------------7------|
A|5------------------------------|5------------------------------|
E|-------------------------------|-------------------------------|
      Woah,   yeah,                   a   -   ha,


G|------- ------- ------- -------|------- ------- ------- -------|
D|--------7-------5--------------|--------7-------5--------------|
A|------------------------7------|------------------------7------|
E|5------------------------------|5------------------------------|
      woah,   yeah,                   a   -   ha,


G|------- 9------ 7------ -------|------- 7------ 5------ -------|
D|------------------------9------|------------------------7------|
A|7------------------------------|5------------------------------|
E|-------------------------------|-------------------------------|
      Woah,   yeah,                   a   -   ha,


G|------- ------- ------- -------|------- ------- ------- -------|
D|--------7-------5--------------|5------------------------------|
A|------------------------7------|----7---5----------------------|
E|5------------------------------|------------5------------------|

Please e-mail me for any corrections, or write a comment.





Comments


Popular Searchers tabs & chords
All My Sorrows Chords
Money Chords
Sweets For My Sweets Chords
Dont Throw Your Love Tabs
Every Time That You Walk In The Room Tabs
Love Potion No. 9 Tabs
Take Me For What Tabs
Aint Gonna Kiss You Ukulele
Sugar And Spice Ukulele
Take It Or Leave It Ukulele


Song lyrics



↑ Back to top | Tablatures and chords are parodies/interpretations of the original songs. You may use it for private study, scholarship, research or language learning purposes only
© 2014 AZChords.com Contact us | Privacy policy | DMCA | Add/correct tabs | Request tabs | Top 50 tabs