» » »

Da Doo Ron Ron Bass tabs (ver.1)

Artists:  A B C D E F G H I J K L M N O P Q R S T U V W X Y Z # 

Da Doo Ron Ron Bass tabs (ver.1)

Searchers
Rating:
5/5 (1 vote)

Hard to play? Try these video lessons and learn fast.
                The Searchers
Written by Jeff Barry, Ellie Greenwich and Phil Spector; released on the 
album "Meet The Searchers"

Intro:
G|------ ------ ------ ------|------ ------ ------ ------|
D|---------------------------|---------------------------|
A|---------------------------|---------------------------|
E|7------7------7------7-----|7------7------7------7-----|



G|------ ------ ------ ------|------ ------ ------ ------|
D|---------------------------|---------------------------|
A|---------------------------|---------------------------|
E|7------7------7------7-----|7------7------7------7-----|


Verse:
G|------ ------ ------ ------|------ ------ ------ ------|
D|---------------------------|---------------------------|
A|---------------------------|7------7------7------7-----|
E|7------7------7------7-----|---------------------------|
  Met her on a Monday, and my heart stood still,       da


G|------ ------ ------ ------|------ ------ ------ ------|
D|---------------------------|---------------------------|
A|9------9------9------9-----|---------------------------|
E|---------------------------|7------7------7------7-----|
  doo ron    ron    ron,   da doo ron    ron,


G|------ ------ ------ ------|------ ------ ------ ------|
D|---------------------------|---------------------------|
A|---------------------------|7------7------7------7-----|
E|7------7------7------7-----|---------------------------|
  Some - bo- dy told   that   name was   Jill,         da
                    me     her

G|------ ------ ------ ------|------ ------ ------ ------|
D|---------------------------|---------------------------|
A|9------9------9------9-----|---------------------------|
E|---------------------------|7------7------7------7-----|
  doo ron    ron    ron,   da doo ron    ron.

Refrain:
G|------ ------ ------ ------|------ ------ ------ ------|
D|---------------------------|---------------------------|
A|---------------------------|7------7------7------7-----|
E|7------7------7------7-----|---------------------------|
         Yeah,             my heart stood still,


G|------ ------ ------ ------|------ ------ ------ ------|
D|---------------------------|---------------------------|
A|---------------------------|9------9------9------9-----|
E|7------7------7------7-----|---------------------------|
         yeah,         and her name was  Jill,


G|------ ------ ------ ------|------ ------ ------ ------|
D|---------------------------|---------------------------|
A|---------------------------|7------7------7------7-----|
E|7------7------7------7-----|---------------------------|
         Yeah,     and when   walked me  home,         da
                           she

G|------ ------ ------ ------|------ ------ ------ ------|
D|---------------------------|---------------------------|
A|9------9------9------9-----|---------------------------|
E|---------------------------|7------7------7------7-----|
  doo ron    ron    ron,   da doo ron    ron.


G|------ ------ ------ ------|------ ------ ------ ------|
D|---------------------------|---------------------------|
A|---------------------------|---------------------------|
E|7------7------7------7-----|7------7------7------7-----|


Verse:
G|------ ------ ------ ------|------ ------ ------ ------|
D|---------------------------|---------------------------|
A|---------------------------|7------7------7------7-----|
E|7------7------7------7-----|---------------------------|
  Knew   she was doing when   caught my  eye,          da
      what                 she

G|------ ------ ------ ------|------ ------ ------ ------|
D|---------------------------|---------------------------|
A|9------9------9------9-----|---------------------------|
E|---------------------------|7------7------7------7-----|
  doo ron    ron    ron,   da doo ron    ron,


G|------ ------ ------ ------|------ ------ ------ ------|
D|---------------------------|---------------------------|
A|---------------------------|7------7------7------7-----|
E|7------7------7------7-----|---------------------------|
  Looked so     fine,  but    my  oh     my,           da


G|------ ------ ------ ------|------ ------ ------ ------|
D|---------------------------|---------------------------|
A|9------9------9------9-----|---------------------------|
E|---------------------------|7------7------7------7-----|
  doo ron    ron    ron,   da doo ron    ron.

Refrain:
G|------ ------ ------ ------|------ ------ ------ ------|
D|---------------------------|---------------------------|
A|---------------------------|7------7------7------7-----|
E|7------7------7------7-----|---------------------------|
         Yeah,            she caught my  eye,


G|------ ------ ------ ------|------ ------ ------ ------|
D|---------------------------|---------------------------|
A|---------------------------|9------9------9------9-----|
E|7------7------7------7-----|---------------------------|
         yeah,         but    my  oh     my,


G|------ ------ ------ ------|------ ------ ------ ------|
D|---------------------------|---------------------------|
A|---------------------------|7------7------7------7-----|
E|7------7------7------7-----|---------------------------|
         Yeah,         when   walked me  home,         da
                           she

G|------ ------ ------ ------|------ ------ ------ ------|
D|---------------------------|---------------------------|
A|9------9------9------9-----|---------------------------|
E|---------------------------|7------7------7------7-----|
  doo ron    ron    ron,   da doo ron    ron.


G|------ ------ ------ ------|------ ------ ------ ------|
D|---------------------------|---------------------------|
A|---------------------------|---------------------------|
E|7------7------7------7-----|7------7------7------7-----|


Verse (solo):
G|------ ------ ------ ------|------ ------ ------ ------|
D|---------------------------|---------------------------|
A|---------------------------|7------7------7------7-----|
E|7------7------7------7-----|---------------------------|
                                                       Da


G|------ ------ ------ ------|------ ------ ------ ------|
D|---------------------------|---------------------------|
A|9------9------9------9-----|---------------------------|
E|---------------------------|7------7------7------7-----|
  doo ron    ron    ron,   da doo ron    ron,


G|------ ------ ------ ------|------ ------ ------ ------|
D|---------------------------|---------------------------|
A|---------------------------|7------7------7------7-----|
E|7------7------7------7-----|---------------------------|
                                                       Da


G|------ ------ ------ ------|------ ------ ------ ------|
D|---------------------------|---------------------------|
A|9------9------9------9-----|---------------------------|
E|---------------------------|7------7------7------7-----|
  doo ron    ron    ron,   da doo ron    ron.


G|------ ------ ------ ------|------ ------ ------ ------|
D|---------------------------|---------------------------|
A|---------------------------|---------------------------|
E|7------7------7------7-----|7------7------7------7-----|


Verse:
G|------ ------ ------ ------|------ ------ ------ ------|
D|---------------------------|---------------------------|
A|---------------------------|7------7------7------7-----|
E|7------7------7------7-----|---------------------------|
  Picked up  at seven, and    looked so  fine,         da
      me                   she

G|------ ------ ------ ------|------ ------ ------ ------|
D|---------------------------|---------------------------|
A|9------9------9------9-----|---------------------------|
E|---------------------------|7------7------7------7-----|
  doo ron    ron    ron,   da doo ron    ron,


G|------ ------ ------ ------|------ ------ ------ ------|
D|---------------------------|---------------------------|
A|---------------------------|7------7------7------7-----|
E|7------7------7------7-----|---------------------------|
  Some   day    soon   gonna  make her   mine,         da
                    I'm

G|------ ------ ------ ------|------ ------ ------ ------|
D|---------------------------|---------------------------|
A|9------9------9------9-----|---------------------------|
E|---------------------------|7------7------7------7-----|
  doo ron    ron    ron,   da doo ron    ron.

Refrain:
G|------ ------ ------ ------|------ ------ ------ ------|
D|---------------------------|---------------------------|
A|---------------------------|7------7------7------7-----|
E|7------7------7------7-----|---------------------------|
         Yeah,            she looked so  fine,


G|------ ------ ------ ------|------ ------ ------ ------|
D|---------------------------|---------------------------|
A|---------------------------|9------9------9------9-----|
E|7------7------7------7-----|---------------------------|
         yeah,      I'm gonna make her   mine,


G|------ ------ ------ ------|------ ------ ------ ------|
D|---------------------------|---------------------------|
A|---------------------------|7------7------7------7-----|
E|7------7------7------7-----|---------------------------|
         Yeah,         when   walked me  home,         da
                           she

G|------ ------ ------ ------|------ ------ ------ ------|
D|---------------------------|---------------------------|
A|9------9------9------9-----|---------------------------|
E|---------------------------|7------7------7------7-----|
  doo ron    ron    ron,   da doo ron    ron.


G|------ ------ ------ ------|------ ------ ------ ------|
D|---------------------------|---------------------------|
A|---------------------------|---------------------------|
E|7------7------7------7-----|7------7------7------7-----|


Refrain:
G|------ ------ ------ ------|------ ------ ------ ------|
D|---------------------------|---------------------------|
A|---------------------------|7------7------7------7-----|
E|7------7------7------7-----|---------------------------|
         Yeah,            she looked so  fine,


G|------ ------ ------ ------|------ ------ ------ ------|
D|---------------------------|---------------------------|
A|---------------------------|9------9------9------9-----|
E|7------7------7------7-----|---------------------------|
         yeah,      I'm gonna make her   mine,


G|------ ------ ------ ------|------ ------ ------ ------|
D|---------------------------|---------------------------|
A|---------------------------|7------7------7------7-----|
E|7------7------7------7-----|---------------------------|
         Yeah,         when   walked me  home,         da
                           she

G|------ ------ ------ ------|------ ------ ------ ------|
D|---------------------------|---------------------------|
A|9------9------9------9-----|---------------------------|
E|---------------------------|7------7------7------7-----|
  doo ron    ron    ron,   da doo ron    ron.


G|------ ------ ------ ------|------ ------ ------ ------|
D|---------------------------|---------------------------|
A|---------------------------|---------------------------|
E|7------7------7------7-----|7------7------7------7-----|
                                                       Da

Outro:
G|------ ------ ------ ------|------ ------ ------ ------|
D|---------------------------|---------------------------|
A|---------------------------|7------7------7------7-----|
E|7------7------7------7-----|---------------------------|
  doo ron    ron    ron,   da doo ron    ron,          da


G|------ ------ ------ ------|------ ------ ------ ------|
D|---------------------------|---------------------------|
A|9------9------9------9-----|---------------------------|
E|---------------------------|7------7------7------7-----|
  doo ron    ron    ron,   da doo ron    ron,          Da


G|------ ------ ------ ------|------ ------ ------ ------|
D|---------------------------|---------------------------|
A|---------------------------|7------7------7------7-----|
E|7------7------7------7-----|---------------------------|
  doo ron    ron    ron,   da doo ron    ron,          da


G|------ ------ ------ ------|------ ------ ------ ------|
D|---------------------------|---------------------------|
A|9------9------9------9-----|---------------------------|
E|---------------------------|7------7------7------7-----|
  doo ron    ron    ron,   da doo ron    ron.


G|------ ------ ------ ------|------ ------ ------ ------|
D|---------------------------|---------------------------|
A|---------------------------|---------------------------|
E|7------7------7------7-----|7------7---7--7------7-----|


Please e-mail me for any corrections, or write a comment.
            
Hard to play? Try these video lessons and learn fast. | Correct




comments powered by Disqus
↑ Back to top | Tablatures and chords are parodies/interpretations of the original songs. You may use it for private study, scholarship, research or language learning purposes only