» » »

Ill Play For You Tabs (ver.1)

Artists:  A B C D E F G H I J K L M N O P Q R S T U V W X Y Z # 

Ill Play For You Tabs (ver.1)

Seals And Crofts
Rating:
0/5 (0 votes)

Hard to play? Try these video lessons and learn fast.
                I'll Play For You
Seals & Crofts


Here's the chords i used

   D      C      G     Cadd9
E--2------0------0-------0-----------|
A--3------1------3-------3-----------|
D--2------0------0-------0-----------|
G--0------2- ----0-------2-----------|
B---------3------2-------3-----------|
E----------------3-------------------|

----------------------------------------------------------------------------

Intro

E---3-2-0------------------------------|
A---------3----------------------------|   Repeat x4
D--------------------------------------|
G--------- ----------------------------|
B--------------------------------------|
E--------------------------------------|

       D    C    G
I'll play for you
I'll play for you
I'll play for you

Verse

    G				
Tonight while the lights are shinin' 
   C				G      Cadd9
And the microphone is on, I'll play for you

Verse Riff

E----5s7-------------------------------|
A--------8-----------------------------|
D----------7---------------------------|
G--------- ----------------------------|
B--------------------------------------|
E--------------------------------------|
   
    G				
So many will be the blessings
C			             G        Cadd9 
And so short will be the time, I'll stay with you

Verse Riff

E----7-------------------------------|
A------8-----------------------------|
D--------7---------------------------|
G------- ----------------------------|
B------------------------------------|
E------------------------------------|

        G                  C              G
But I'll play for you, I love you, yes, I do
         G                   C
You can say that I'm your friend
         G                    C
You can see my life begin and end
 
G        C            G
I'll always play for you

Outro

E----10-12-10--------------------------------------------------------------|
A-------------12-----------------------------------------------------------|
D----------------12------12h14-12------------------------------------------|
G--------------------12-------------------REPEAT---------------------------|
B--------------------------------------------------------------------------|
E--------------------------------------------------------------------------|

Outro (Alternate Way)

E----10-12-10--------------------------------------------------------------|
A-------------12-8-----8h10-8----------------------------------------------|
D-------------------7------------------------------------------------------|
G-----------------------------------------REPEAT---------------------------|
B--------------------------------------------------------------------------|
E--------------------------------------------------------------------------|
            
Hard to play? Try these video lessons and learn fast. | Correct




comments powered by Disqus
↑ Back to top | Tablatures and chords are parodies/interpretations of the original songs. You may use it for private study, scholarship, research or language learning purposes only