>
 >
Sale Of The Century

Sale Of The Century Guitar Tabs

Seahorses - Sale Of The Century chords, tabs, tablatures, lyrics

Guitar lessons | Add/correct | Request | Top 50 tabs Artists:  A B C D E F G H I J K L M N O P Q R S T U V W X Y Z 0-9

Sale Of The Century Guitar Tabs – Seahorses

CD, Sheet music, Poster

Do you like Sale Of The Century? Share with your friends now
Tabs
Sale of the Century(v1.0) - The Seahorses

Written by John Squire
Let us know of any corrections you have.

I play with a capo on the first fret but tab is set as normal

  C     D#     F      D# C       D#             F    
E------------------------------------------------------------------------
B------------------------------------------------------------------------
G-------8-8----10-10--8----------8--8--8-8-8----10-10-10-10------------8-
D-10----8-8----10-10--8--10-10---8--8--8-8-8----10-10-10-10-------8h10---
A-10----6-6-----8--8--6--10-10---6--6--6-6-6-----8--8--8--8--8h10--------
E--8---------1------------8--8----------------1--------------------------

  C     D#      F     D# C      D#            F              G
E---------------------------------------------------------------------------
B---------------------------------------------------------------------------
G-------8-8----10-10--8---------8--8--8-8-8--10-10-10-10-10--12-12-12-12-12-
D-10----8-8----10-10--8--10-10--8--8--8-8-8--10-10-10-10-10--12-12-12-12-12-
A-10----6-6-----8--8--6--10-10--6--6--6-6-6---8--8--8--8--8--10-10-10-10-10-
E--8---------1------------8--8----------------------------------------------

@
            D                 G
E----------------------------------------------------------
B-----------7----------------------------------------------
G----7h9p7--7-----------------4---------------------7h9p7--
D-7h9-----7-7-----------------5------------------7h9-----7-
A-----------5-----------------5----------------------------
E-----------------------------3----------------------------
            Step right up now hurry, hurry, hurry

  D                G                     D                        G
E-------------------------------------------------------------------------
B-7--7-------------------12-12-12-12-12--7--------------------------------
G-7----7----7------4-----12-12-12-12-12--7------------------------4-------
D-7------7----9p7--5-----12-12-12-12-12--7------------------------5-------
A-5----------------5---------------------5------------------------5-------
E------------------3----------------------------------------------3-------
  Come on down and play                   Take your seats for the sale of

  A                        F
E-5------------------------1--------------------------------
B-5------------------------1--------------------------------
G-6------------------------2--------------------------------
D-7------------------------3--------------------------------
A-7------------------------3--------------------------------
E-5------------------------1--------------------------------
  anything you want  we've got it here today, we've got the

  A#                   F              D#              A#
E--------------------------1----------3-------2-----------------------
B--------------------------1----------4-------4-------3---------------
G-3--3------3----------2---2--2--2----3-------3-------3---------------
D-3--3------3----------3------3--3----1-------1-------3---------------
A-1--1--1-3-1----5--2--3------3--3--------------------1---------------
E----------------------1------1--1--------------------------------3p0-
  my life massacre     E type Jaguar  Barbie, Ken and Christy Brown
 dry weave top sheets  (beetlemania   Gagarin, sheperd and then
                          nutrasweet)  

           F                     D#                 D?
E---------------------------------3-------------------------------
B---------------------------------4------------------7------------
G----------2----------------------3------------------5------------
D----------3----------------------1------------------7------------
A----------3-----------------------------------------5------------
E-3p0-3p0--1-----------------2p0----------------------------------
           Anne Frank's diary,    DC's library and a chunk of the
           Hiroshima,         non dairy creamer 

                            D#
E---------------------------3----------------------------------
B---------------7-----------4----------------------------------
G-------------5---5--5-5-5--3----------------------------------
D---------5h7--------7-6-5--1----------------------------------
A--------------------------------------------------------------
E--------------------------------------------------------------
  Berlin wall               sure you can find what you're after


  D?           A#                                  G#      (mute bits)
E-1------------------------------------------------4-------------------
B-4------------3-----------------------------------4-------------------
G-3------------3-----------------------------------5-------------------
D-1------------3-----------------------------------6-------------------
A--------------1-----------------------------------6-------------------
E--------------------------------------------------4-------------------
  we've got it all for sale today, save all you're change come and play

               D#                A#
E--------------3-------------------------------------------------------------
B--------------4-------------------------------------------------------------
G--------------3-----------------3-3-3---------------------------------------
D--------------1-----------------3-3-3---------------------------------------
A--------------------------------1-1-1--------------1-1-1-------1-1-1--3-3-3-
E--------------------------------------1-1-1--4-4-4-------3-3-3--------------
  20th century   sale starts today

(back to @) and then solo after second verse
[2:17]
E--------------------13-15----------------------------------
B-16^17^16-13--13-16------16-13-----------------------------
G---------------------------------------8-10-10^11-10-8-----
D----------------------------------8-10-----------------10--
A-----------------------------------------------------------
E-----------------------------------------------------------

E------------------------5/11-11-13-11--------------------------------
B------8-8-8--------------------------------------------8h9p8---------
G------8-8-8-------------------------------------8-----------10p8-----
D-8h10-------10-10-8-10---------------------8h10---10-------------10--
A--------------------------------------8h10---------------------------
E---------------------------------------------------------------------

E-8----------------------------------------------------------------
B---8-------15-13-15^16^15-13---13-13-13-13/0----------------------
G-----8----------------------15-------12-12/0-----------8----------
D-------10------------------------------------------------10-10-10-
A----------------------------------------------10-9-8--------------
E-----------------------------------------------------8------------

                     D                 G            
E-------------------------------------------------------------------
B-8-8-8-8-----7h8p7--7----------------------------------------------
G-9-9-9-9---7------9-7-----------------4---------------------7h9p7--
D---------9----------7-----------------5------------------7h9-----7-
A--------------------5-----------------5----------------------------
E--------------------------------------3----------------------------
                     Step right up now hurry, hurry, hurry

  D                G                    D                         G
E---------------------------------------------------------------------
B-7--7------------------12-12-12-12-12--7-----------------------------
G-7----7---7-------4----12-12-12-12-12--7-------------------------4---
D-7------7---9p7---5----12-12-12-12-12--7-------------------------5---
A-5----------------5--------------------5-------------------------5---
E------------------3----------------------------------------------3---
  come on down and play                 take you're seats for the sale

                  A
E-----------------5----------------------------------------------
B-----------------5----------------------------------------------
G-----------------6----------------------------------------------
D-----------------7----------------------------------------------
A-----------------7----------------------------------------------
E-----------------5----------------------------------------------
 of the century,  anything you want, anything you want, anything

          Asus4     A       Asus4    A
E----------5--------5--------5-------5--
B----------5--------5--------5-------5--
G----------7--------6--------7-------6--
D----------7--------7--------7-------7-- etc until fades
A----------7--------7--------7-------7--
E----------5--------5--------5-------5--
  you want





Comments


Popular Seahorses tabs & chords
Hello Bass Tabs
Love Is The Law Bass Tabs
Boy In The Picture Chords
Happiness Is Eggshaped Chords
Blinded By The Sun Tabs
Love Is The Law 1 Tabs
Tombraid Intro Tabs
Happiness Is Eggshaped Ukulele
Keeping Time Ukulele
Moving On Ukulele


Song lyrics



↑ Back to top | Tablatures and chords are parodies/interpretations of the original songs. You may use it for private study, scholarship, research or language learning purposes only
© 2014 AZChords.com Contact us | Privacy policy | DMCA | Add/correct tabs | Request tabs | Top 50 tabs