>
 >
Round The Universe

Round The Universe Guitar Tabs

Seahorses - Round The Universe chords, tabs, tablatures, lyrics

Guitar lessons | Add/correct | Request | Top 50 tabs Artists:  A B C D E F G H I J K L M N O P Q R S T U V W X Y Z 0-9

Round The Universe Guitar Tabs – Seahorses

CD, Sheet music, Poster

Do you like Round The Universe? Share with your friends now
Tabs
The Seahorses - Round the universe(v1.0)

Written by Squire
Let us know of any corrections you have.

E------------------------------------------5-5-5-5-3/5-5-------------------
B-8-8-8-8-8-8-8-8-8-7-7-7-7-7-7-7-7/0------5-5-5-5-3/5-5-7-5-5---5---------
G-7-7-7-7-7-7-7-7-7-7-7-7-7-7-7-7-7/0--4/6---------------7-5-5---5---5-----
D----------------|---------------------------------------------7---7-5-7h5-
A--------------------------------------------------------------------------
E--------------------------------------------------------------------------

E--------------------------------------3/5-5-5-5-5-5-3/5-5----------------
B-----8-8-8-8-8-8-8-8-7-7-7-7-7-7-7/0--3/5-5-5-5-5-5-3/5-5--5-5^-5^-5^----
G-5/7-7-7-7-7-7-7-7-7-7-7-7-7-7-7-7/0-----------------------7-5^-5^-5^----
D-------------------------------------------------------------------------
A-----------------------------------------------------------------------7-
E-------------------------------------------------------------------------

       E                                A
E-------------------------------------------------------------------
B-----------------------9--9---9--------------2-----2----2----------
G-----------------------9--9---9--------------2-----2----2----------
D-----------------------9--9---9--------------2-----2----2----------
A-----------------------7--7---7-----------0----3p0---0-----4-3-2-0-
E------0---12/3--3p0---------0----3-3-2-0---------------------------
 Did I step down from a spaceship that was orbiting your earth


   E                               A
E-----------------------------------------------------------------
B----------------9--9---9--------------2--------2-----14/-13/-11--
G----------------9--9---9--------------2--------2-----14/-13/-11--
D----------------9--9---9--------------2--------2-----14/-13/-11--
A----------------7--7---7----------0------3p0------12-------------
E--0--12/3--3p0-------0---3-3-2-0---------------------------------
  Shining like a star above  you   way down in the dirt

          E                                   A
E------------------------12-12---12---------------------------------------
B-------------9-------9--12-12---12-9------------2-------2-----2----------
G-------------9-------9--------9-----12-11-9-----2-------2-----2----------
D-------------9-------9--------------------------2-------2-----2----------
A-------------7--7/9--7-----------------------0-----3p0-----0-----4-3-2-0-
E---------0---------------------------------------------------------------
won't you take me to your leader won't  you   show me round the sights

       E                                  A
E------------------------------------------------------------------
B-----------------------9--9---9--------------2-----2--------------
G-----------------------9--9---9--------------2-----2--------------
D-----------------------9--9---9--------------2-----2--------------
A-----------------------7--7---7------------0---3p0---0-0-0-2-3-4--
E------0---12/3--3p0---------0----3-3--2--0------------------------
 I dont think i've landed here before but   then again I might  cause

     C#min          A                 D                    A       
E-----4-------------5----------------------------------------------
B-----5-------------5----------------------------------------------
G-----6-------------6-----------------------------------------9----
D-----6-------------7----------------------------------------------
A----------------------------------------------------------7-----7-
E------------------------------------------------------------------
 your face looks so familiar but your eyes have lost their shine

         E
E-----------------------------------------------------------------------
B----------------------8p7----------------------------------------------
G-7p6------9-------9-------9--7--9---6h7p6-----------------0------------
D-----7-------9h11-------------------------7------------2-----4--2p0h2--
A--------7------------------------------------------2h4-----------------
E---------------------------------------------0--0----------------------

         B                                   E
E------------7-------------------------------------------------
B------------7-------------------------------9-----------------
G-1--2-4-----8-------------------------------9-----------------
D--------9---9------------------------6------9-----------------
A--------9------------------------------9-7--7-----------------
E--------7-----------------------------------------------------
   I can take you round the universe in a hot wired police car 

         B                              E
E------------7-----------------------------------------------
B------------7-----------------------------9-----------------
G------------8-----------------------------9-----------------
D--6-----9---9----------------------6------9-----------------
A----9-7-9----------------------------9-7--7-----------------
E--------7---------------------------------------------------
 you can ram raid Mars and Jupiter and drive right through a 

                              B                            E
E-4h5p4-4h5p4p0-4h5p4-4h5p4p0-----7-------------------------------------
B---------------------------------7---------------------------9---------
G---------------------------------8---------------------------9---------
D-----------------------------9---9--------------------6------9---------
A-----------------------------9--------------------------9-7--7---------
E-----------------------------7-----------------------------------------
 star                 there's one thing you can do for me   here me now

               D                             D        A           E
E-----------------------------------------------------5-----------0---
B--------------7-----------------------------7--------5-----------0---
G--------------7-----------------------------7--------6-----------2---
D-------6-7-9--7-----------------------------7--------7-----------3---
A--------------5-----------------------------5--------7-----------3---
E-----------------------------------------------------5-----------0---
 my friend     Tell me, tell me, tell me why all good things must come

      E
E--------------------------------------------------------------
B--------------------------------------------------------------
G--------------------------------------------------------------
D---------------2---5-4--2p0h2------------------2---5-4--2p0h2-
A-----------2-4------------------5p4--------2-4----------------
E------0--0--------------------------5p0--0--------------------
 to an end     
      
       E                                    A
E--------------------------------------------------------------------------
B--------------------------------------------------------------------------
G-----------------------------------------------2------2---2-2---2---------
D-----------2---------2---2-2----2-----------------------------------------
A-------------------------------------------0-----3p0----------0---4-3-2-0-
E------0---------3p0----------0----3-3-2-0---------------------------------              
 Did I crash land in your conscience? Did I rain on your parade?   Am I your

  E                              A                  
E------------------------------------------------------------------
B-----------------------------------------------------/14-/13-/11--
G-------------------------------------2-------2--2----/14-/13-/11--
D----2------2---2-2----2------------------------------/14-/13-/11--
A---------------------------------0------0h3-----------------------
E-0----3p0----------0----3-3-2-0-----------------------------------
  Alien   abduction nightmare?    Won't you be my slave

         E                                    A  
E------------------------12-12---12-------------------------------
B-------------9-------9--12-12---12-9------------2-------2-----2--
G-------------9-------9--------9-----12-11-9-----2-------2-----2--
D-------------9-------9--------------------------2-------2-----2--
A-------------7--7/9--7-----------------------0-----3p0-----0-----
E---------0-------------------------------------------------------
 Is there anybody in there?          hey there earthling get the 

                                     E 
E----------17-17-17-17-17-17-17-17---------------------------------
B----------17-17-17-17-17-17-17-17---------------------------------
G----14/18---------------------------------------------------------
D--------------------------------------2------2---2-2---2----------
A------------------------------------------------------------------
E-----------------------------------0----3p0----------0---3-3-2-0--
 phone                         your   virtual  reality's    a  

  A
E-----------------------
B-----------------------
G-----2------2-2--------
D-----------------------
A-0-----0h3------2^3----
E-----------------------
  house it's not a home

      C#min                A         D            A       
E------4-------------------5-------------------------------------
B------5-------------------5-------------------------------------
G------6-------------------6--------------------------------9----
D------6-------------------7-------------------------------------
A---------------------------------------------------------7----7-
E----------------------------------------------------------------
well a truth as strange as fiction is right there in your eyes

         E
E-----------------------------------------------------------------------
B----------------------8p7----------------------------------------------
G-7p6------9-------9-------9--7--9---6h7p6-----------------0------------
D-----7-------9h11-------------------------7------------2-----4--2p0h2--
A--------7------------------------------------------2h4-----------------
E---------------------------------------------0--0----------------------

         B                                   E
E------------7-------------------------------------------------
B------------7-------------------------------9-----------------
G-1--2-4-----8-------------------------------9-----------------
D--------9---9------------------------6------9-----------------
A--------9------------------------------9-7--7-----------------
E--------7-----------------------------------------------------
   I can take you round the universe in a hot wired police car 

         B                              E
E------------7-----------------------------------------------
B------------7-----------------------------9-----------------
G------------8-----------------------------9-----------------
D--6-----9---9----------------------6------9-----------------
A----9-7-9----------------------------9-7--7-----------------
E--------7---------------------------------------------------
 you can ram raid Mars and Jupiter and drive right through a 

                              B                            E
E-4h5p4-4h5p4p0-4h5p4-4h5p4p0-----7-------------------------------------
B---------------------------------7---------------------------9---------
G---------------------------------8---------------------------9---------
D-----------------------------9---9--------------------6------9---------
A-----------------------------9--------------------------9-7--7---------
E-----------------------------7-----------------------------------------
 star                 there's one thing you can do for me   here me now

               D                             D        A           E
E-----------------------------------------------------5-----------0---
B--------------7-----------------------------7--------5-----------0---
G--------------7-----------------------------7--------6-----------2---
D-------6-7-9--7-----------------------------7--------7-----------3---
A--------------5-----------------------------5--------7-----------3---
E-----------------------------------------------------5-----------0---
 my friend     Tell me, tell me, tell me why all good things must come


E-------------------------------------------------------------------------
B-----------2----2----2----2----2---0h1p0---------------------------------
G-------4^6---^6---^6---^6---^6-----------2p0-2p0-------------------------
D-------------------------------------------------2p0 2h3p2p0-2p0-2p0-2p0-
A-------------------------------------------------------------------------
E-------------------------------------------------------------------------
 to an end                   to an end

E-----------------------------------------------
B--------------------------------2-----2--------
G--------------------------------4^6--^6--^6^4--
D--------------------------7-7------------------
A-0-h-2-h-4-/5--7----7-8-9----------------------
E------------------9----------------------------

E----9--------10--------14-----------12---------------12------
B-------------------------------------------------------------
G-9----9-h-11-----11/14----14--11/13----11h13p11--9-9----9/0--
D-------------------------------------------------------------
A-------------------------------------------------------------
E-------------------------------------------------------------

                                             Mess around (slide/pluck)
E-2-2-2-2-2-2-2-2-4-4-4-4-5-5-5-5-7-7-7-7-|-0h3p0---------------------|-
B-2-2-2-2-2-2-2-2-4-4-4-4-5-5-5-5-5-5-5-5-|-------0h3p0 etc-----------|-
G-----------------------------------------|---------------------------|-
D-----------------------------------------|---------------------------|-
A-----------------------------------------|---------------------------|-
E-----------------------------------------|---------------------------|-

  D   E
E-2-------------------------------------------------------------
B-3-------------------------------------------------------------
G-2-------------------------------------------------------------
D-0-----------2--5-4--2p0h2----------------2--5-4-2p0h2---------
A---------2h4---------------5p4--------2h4--------------5p4-----
E-----0-0-----------------------5p0--0----------------------5-3-

  D           E                                               blah
E-2--2--2--2--0--0---2-2-2-2--3-3-3-3--4-4-4-4-/-12-12-12-12-|----|---
B-3--3--3--3--0--0---3-3-3-3--4-4-4-4--5-5-5-5-/-12-12-12-12-|----|-2-
G-2--2--2--2--2--2-------------------------------------------|----|-2-
D-0--0--0--0--3--3-------------------------------------------|----|-2-
A-------------3--3-------------------------------------------|----|-0-
E-------------0--0-------------------------------------------|----|---





Comments


Popular Seahorses tabs & chords
Blinded By The Sun Chords
Happiness Is Eggshaped Chords
Your Ghost Chords
Falling Is Easy Tabs
Love Is The Law Tabs
Love Is The Law 2 Tabs
Sale Of The Century Tabs
Blinded By The Sun Ukulele
Keeping Time Ukulele
Your Ghost Ukulele


Song lyrics



↑ Back to top | Tablatures and chords are parodies/interpretations of the original songs. You may use it for private study, scholarship, research or language learning purposes only
© 2014 AZChords.com Contact us | Privacy policy | DMCA | Add/correct tabs | Request tabs | Top 50 tabs