» » »

Seahorses, Dreamer Tabs (ver.1)

Artists:  A B C D E F G H I J K L M N O P Q R S T U V W X Y Z # 

Dreamer Tabs (ver.1)

Seahorses Tabs
 Rating:
4/5 (4 votes)
Dreamer lessons Tabs too difficult? Try these video lessons and learn fast
1
                
Intro:

|Am       |   x 8
|D	G |   x 2

Verse:

D                                    Dmaj7
Find yourself within a picture painted in a dream
D7		          C
blowing ever Knowing, no you don't know where you've been
G		F		Em		E
voices coming and going as you wake at dawn

Chorus:

A
you know their telling me, it won't be long
C		      G	    F	    Em	    E
oh it won't be long so don't be long,. don't be long

Verse:

D                                    Dmaj7
Find it hard to understand the things you said to me
D7		          C
I never dream of pictures so I don't know what you mean
G		F		Em		E
voices coming and going as you wake at dawn

Chorus:

A
you know their telling me, it won't be long
C		G	F	Em	E
oh it won't be long so don't be long,. don't be long


Verse: 	same chords with “laaa, la da di dah….”

Solo:		chorus chords

Outro:

E-2-----2-----2-----0-----------3--3---1-----0-----0--------5--5----|
B-3-----2-----1-----1-----------3---3--1-----0-----0------3--3--3---|
G-2-----2-----2-----0--0h2p0----0------2-----0-----1----2-----2--2--|
D-0-----0-----0-----2--------2--0------3-----2-----2----------------|
A-------------------3-----------2------3-----2-----2----------------|
E-------------------3-----------3------1-----0-----0----------------|

E-5-3-4-----4-----4-2-3-----3-2-0----2-|
B-------3-----3---------3---------3--3-|
G---------2-----2---------0----------2-|
D------------------------------------0-|
A--------------------------------------|
E--------------------------------------|
            
Submit corrections

comments powered by Disqus
↑ Back to top | Seahorses Tabs for Dreamer. Lyrics for acoustic guitar and electric guitar. 1 Tablatures and chords are parodies/interpretations of the original songs. You may use it for private study, scholarship, research or language learning purposes only