>
 >
199

199 Guitar Tabs

Seahorses - 199 chords, tabs, tablatures, lyrics

Guitar lessons | Add/correct | Request | Top 50 tabs Artists:  A B C D E F G H I J K L M N O P Q R S T U V W X Y Z 0-9

199 Guitar Tabs – Seahorses

CD, Sheet music, Poster

Do you like 199? Share with your friends now
Tabs
1999 (v1.0) - The Seahorses

Written by John Squires
Let us know of any corrections you have.

Play with a capo on second fret although this is written as without capo

E-------14-------------------------------------------------------------
B----------------------------------------------------------------------
G-13^15----15^13-13-13p11----------11--13--13h14p13p11----11--------11-
D-------------------------11-11h13---------------------13-----11h13----
A----------------------------------------------------------------------
E----------------------------------------------------------------------

E---------------------------------------------------------------
B---------------------------------------------------------------
G-8p6---6--------------------------------------------11---11h13-
D-----8---8--7-6-4--4h6p4---4------------11-11-11-11---13-------
A-------------------------6----4/9---9-11-----------------------
E---------------------------------------------------------------


E-------------------------14-----------------------------7--
B-11-11h12p11--------------------------------------------7--
G-------------13-11--13^15--15^13-13-11------7---7-7---7-8--
D------------------------------------------7---7-----7---9--
A--------------------------------------------------------9--
E--------------------------------------------------------7--

              (screamer)
E-----------------------------------------------------4-------------------
B-----7--9^10^9-7-7-----------------------------------5------------4------
G---7-------------7---------------3-------------------4------------4------
D-8------------------9------------4-------------------2------------4------
A---------------------------------4--------------------------------2------
E------------------------5p2-5p2--2---------------------------------------
                                    She likes to rise early in the morning

E------------2--------------------------------7-----------/12-12-12-
B------------2--------------------------------7----9--9---/12-12-12-
G---------3--3-----------3h5h6----------------8----9--9---/13-13-13-
D---------4----------------------------------------9--9-------------
A---------4----------------------------------------7--7-------------
E-5p2-5p2-2--------------------------------7------------------------
             she does her best to blow the cobwebs away

E--------------------------------------------------------
B-----11--------------11---------------------------------
G-----11--------------11--------9----11----9---8----6----
D-----11--------------11---------------------------------
A-9---9---------------9----------------------------------
E------------------9-------------------------------------
  And if its still light     maybe she'll skip breakfast


E----------------------------------------------------------7----
B-----------7----------------------------------------------7----
G-----------------------------------------7---7-7----7-----8----
D---------------------------------------7---7-----7--------9----
A----------------------------------------------------------9----
E--9-------------------------------------------------------7----
  hope that someone can throw a little star dust her way,  yeah


E-------------------------------------------------------4------------------
B-----7--9^10^9-7-7-------------------2-----------2-----5------------------
G---7-------------7-------------------3-----------3-----4------------------
D-8------------------9----------------4-----------4-----2------------------
A-------------------------------------4-----------4------------------------
E------------------------5p2-5p2--2-----------2----------------------------
                                  Crossing the room the day after the night

E-----------------------------------------------------------------
B-4-------------------------2------2h3p2------------------9--9--9-
G-4--------------4----------3-----------------8--8--8-----9--9--9-
D-4----------4h6---2--------4-----------------9--9--9-----9--9--9-
A---------------------------------------------9--9--9-----7--7--7-
E----------------------2----------------------7--7--7-------------
  before the nightmare   pink blue eyes drink in the aftermath

E-/12-12-12-------------------------------------------------------
B-/12-12-12-----11--11--11-----11--11--11-------------------------
G-/13-13-13-----11--11--11-----11--11--11--9--11--9----8---6------
D---------------11--11--11-----11--11--11-------------------------
A---------------9---9---9------9---9---9--------------------------
E-----------2---------------2-------------------------------------
             The worlds her oyster        anything she chooses but

E-----------------------------10----10-10----10--------
B-------------7------------10----10-------10-----------
G--------------------------------------------------8---
D--------------------------------------------------9---
A--------------------------------------------------9---
E-9------------------------------------------------7---
  this little girl doesn't know where her shoes is yeah


E-----------------------9-------------------------------------
B-----7--9^10^9-7-7-----9-------------------------------------
G---7-------------7-----9--11---11---9-----8--9----8----------
D-8-----------------9------14---11---9-----9--9----9----------
A------------------------------------------------------6p2----
E-------------------------------------------------------------
                            Sixteen sweet chablis sham kisses


E-----------------------------------------------------------------
B-----------------------------------------------------------------
G-----------------------------------------------------------------
D-------------2--------4p2-------------------7-6--6--------4------
A-4--4---6-----------------------6--4---2-------------------------
E-----------------------------------------------------------------
    Seventeen nothings whispered in her ear      eighteen attempts

E--------------------------------------------------------2-----
B-------------------------------------2--------------2-----4p2-
G---------------------------------3-4----------- 3-4-----------
D--2----------------------------4------------------------------
A--------6----7---6---4---2------------------------------------
E--------------------------------------------------------------
  at her best pair of knickers  1999      was a hell of   a  


E-2----2-----------14--------------------------------------12-----
B--4p2--4p2-------------------------------------14--15^16--14^15--
G------------13^15----15^13-13------------------14----------------
D-------------------------------6p4-------------------------------
A-----------------------------------6p4p2-------------------------
E-----------------------------------------2p0---------------------
  year...........................................................
v
E----------------------------------------------------------------------
B-12p11-12-14-12p11-11p12h11-11p12h11----------------------------------
G-------------------------------------13--11---------------------------
D----------------------------------------------------------------------
A----------------------------------------------------------------------
E----------------------------------------------------------------------
                                             she likes to ride early in

E---------------------------------------------------------------------
B---------------------------------11-12-14----------------12p11-12p11-
G---------------------------------------------------------------------
D---------------------------------------------------------------------
A---------------------------------------------------------------------
E------------5p2-5p2--2-----------------------------------------------
 the morning          she does her best to blow the cobwebs away

E--------------------------------------------------------------------
B----------11--11--11---------11--11--11-----------------------------
G-11/2-----11--11--11---------11--11--11---9----11----9-----8---6----
D----------11--11--11---------11--11--11-----------------------------
A----------9---9---9----------9---9---9------------------------------
E------2------------------2------------------------------------------
         And if its still light           maybe she'll skip breakfast

E--------------------------------------------------------7--7/2-
B-----------7--------------------------------------------7--7/2-
G-----------------------------------------7---7-7----7---8------
D---------------------------------------7---7-----7------8------
A-9------------------------------------------------------8------
E--------------------------------------------------------7------
  Hope that someone can throw a little star dust her way yeah

E------------------------9---9---9---9---------3-----------------------------
B-----7--9^10^9-7-7------10--10--10--10--------3------------7----------------
G---7-------------7----------------------------4------------7----------------
D-8-----------------9--------------------------5------5-----7------7h9p7---7-
A-------------------------------------------------5h7----5--5--7h9-------9---
E-------------------------------------------3--------------------------------
                        That must of been a night to remember

E-------------------------------15--15--15---------------------------
B----12-------------17-----17---16--16--16-------14----14---14-------
G----12-------12----17-----17---15--15--15--13^14---^14--^14---14^13-
D----12--12h14------17-----17----------------------------------------
A-10-10----------15-15--15-15----------------------------------------
E--------------------------------------------------------------------
  shame   she    forgot


E---------------------------------------------------------------------
B---------------------------------------------------------------------
G---------11-13-13h14p13p11--11-------11---8p6---6--------------------
D-11-11h13-----------------13----11h13---------8---8-7-6-4--4h6p4---4-
A-----------------------------------------------------------------6---
E---------------------------------------------------------------------

E-------------------------------------------------------------14-------
B------------------------------------11-11h12p11-----------------------
G------------------------11----11h13-------------13-13--13^15----15^13-
D-----------11--11-11-11----13-----------------------------------------
A-4/9--9-11------------------------------------------------------------
E----------------------------------------------------------------------

E------------------------7-------------------------------------
B------------------------7------7-9^10^9-7-7-------------------
G-13-11----7----7-7---7--8----7------------7-------7---7-7---7-
D--------7---7------7----9--8----------------9---7---7-----7---
A------------------------9-------------------------------------
E------------------------7-------------------------------------


E----10-----16-14-----------
B-10----10--------15--------
G----------------------7^8--
D---------------------------
A---------------------------
E---------------------------





Comments


Popular Seahorses tabs & chords
Blinded By The Sun Chords
Hello Chords
Hello 1 Chords
I Want You Chords
Blinded By The Sun Tabs
Falling Is Easy Tabs
Hello Tabs
Love Is The Law Intro Tabs
Sale Of The Century Tabs
Your Ghost Ukulele


Song lyrics



↑ Back to top | Tablatures and chords are parodies/interpretations of the original songs. You may use it for private study, scholarship, research or language learning purposes only
© 2014 AZChords.com Contact us | Privacy policy | DMCA | Add/correct tabs | Request tabs | Top 50 tabs