» » »

Sea And Cake, You Beautiful Bastard Bass tabs (ver.1)

Artists:  A B C D E F G H I J K L M N O P Q R S T U V W X Y Z # 

You Beautiful Bastard Bass tabs (ver.1)

Sea And Cake Tabs
 Rating:
4/5 (4 votes)
You Beautiful Bastard lessons Tabs too difficult? Try these video lessons and learn fast
                "You Beautiful Bastard"--song
Oui--album
The Sea and Cake--artist

First riff--repeats for quite some time.
Tempo is quite slow.

G |----------------|5-7-5------7-5--|
D |----5-----------|--------5-------|
A |3----------3----|----------------|
E |----------------|----------------|


Transition


G |10------12--10--- -|- ---------------|9---- ---- ---- ---|
D |- ------- --- --12-|- ---------------|----12---10---- ---|
A |- ------- --- --- -|10---------------|----- ---- ---12---|
E |- ------- --- --- -|- ---------------|----- ---- ---- ---|


Second riff--subtle variations appear after about six repetitions.


G |--------- ------ -|7---9-----------|    |----------  - - ----|7---9-----------|
D |----5---10--9--10-|----------------|    |----5----10p9h10--9-|----------------| one 
A |55-7----- ------ -|----------------|    |55-7------  - - ----|----------------| variation
E |--------- ------ -|----------------|    |----------  - - ----|----------------|

G |--------- ------ -|7h9p7-9-----------|
D |----5---10--9--10-|- - --------------|  another 
A |55-7----- ------ -|- - --------------|  variation
E |--------- ------ -|- - --------------|


For those unfamiliar with my tabs, each measure is divided into 16th notes (the dashes).
Unless otherwise indicated, the timing is 4/4.
"p" means pull off, "h" means hammer on.
Enjoy!

Ian Williamson
            
Submit corrections

comments powered by Disqus
↑ Back to top | Sea And Cake Bass for You Beautiful Bastard. Lyrics for acoustic guitar and electric guitar. Tablatures and chords are parodies/interpretations of the original songs. You may use it for private study, scholarship, research or language learning purposes only