» » »

The Argument Bass tabs (ver.1)

Artists:  A B C D E F G H I J K L M N O P Q R S T U V W X Y Z # 

The Argument Bass tabs (ver.1)

Sea And Cake
Rating:
0/5 (0 votes)

Hard to play? Try these video lessons and learn fast.
                Part 1

G---------------------------------|
D------7------7------7------7-----|
A--5-----5-5----5-5----5-5----5---|
E---------------------------------|


Part 2

G-----7-6------7-6-----7-6-----7--|
D--5--------5-------5-------5-----|
A---------------------------------|
E---------------------------------|


Part 3

G----------------9----------------|
D--5----7----9--------9---7-------|
A---------------------------------|
E---------------------------------|


Part 4

G-------7--9--11--9--h11p9--7------------------|
D-7--9-------------------------9--7------------|
A--------------------------------------9--7----|
E----------------------------------------------|


Parts 1 & 2 alternate during the first half of the song (before the vocals), 
then Parts 1 & 3 alternate with part 4 thrown in after every two cycles most 
of the time.
            
Hard to play? Try these video lessons and learn fast. | Correct




comments powered by Disqus
↑ Back to top | Tablatures and chords are parodies/interpretations of the original songs. You may use it for private study, scholarship, research or language learning purposes only