» » »

Sea And Cake, Seemingly Bass tabs (ver.1)

Artists:  A B C D E F G H I J K L M N O P Q R S T U V W X Y Z # 

Seemingly Bass tabs (ver.1)

Sea And Cake Tabs
 Rating:
4/5 (4 votes)
Seemingly lessons Tabs too difficult? Try these video lessons and learn fast
                "Seemingly"--song
Oui--album
The Sea and Cake--artist

This one is a little more complicated.

  First riff--Soft and somewhat slow to start off with.

G |9----------------|----------------|-----------------|9------12-------|
D |------------10-9-|7------9--------|7-----------9-10-|------(10)-(9)--|
A |-----------------|----------------|-----------------|----------------|
E |-----------------|----------------|-----------------|----------------|


  Notes in parentheses are only played as transition to the second riff.


G |----------------|----------------|------------------|------------------|
D |5-------5-------|5-------5-------|7--------7--------|7--------7--------|
A |--8-5------8--5-|--8-5------8--5-|--10-7------10--7-|--10-7------10--7-|
E |----------------|----------------|------------------|------------------|

  The timing on this third part is a little odd, so listen to it as you
  play through a few times.

G |----------------|----------------|                |----------------|
D |-97--97--97--97-|----------------| 3 times        |----------------|
A |8---8---8---8---|----7--8----10--|   through      |8-------10------|
E |----------------|8---------------|                |----------------|

G |----------------|----------------|               
D |-97--97--97--97-|----7--8----10--| 2 times        
A |8---8---8---8---|8---------------|   through      
E |----------------|----------------|               

G |----------------|----------------|9---------------|11--------------|
D |----------------|7------10-------|----------------|----------------|
A |8-------10------|----------------|----------------|----------------|
E |----------------|----------------|----------------|----------------|

  Fourth riff--repeat to end
  Listen to this one for timing--it is hard to represent exactly in tab.

G |97-----9-7----7-|97-----9-7----7-|9-------9-------7-|9-------9-------7-|
D |-10-7----10-7---|-10-7----10-7---|10-9-7---10-9-7---|10-9-7---10-9-7---|
A |----------------|----------------|------------------|------------------|
E |----------------|----------------|------------------|------------------|

  Enjoy!
  
  Ian M. Williamson
            
Submit corrections

comments powered by Disqus
↑ Back to top | Sea And Cake Bass for Seemingly. Lyrics for acoustic guitar and electric guitar. Tablatures and chords are parodies/interpretations of the original songs. You may use it for private study, scholarship, research or language learning purposes only