» » »

Jacking The Ball Bass tabs (ver.1)

Artists:  A B C D E F G H I J K L M N O P Q R S T U V W X Y Z # 

Jacking The Ball Bass tabs (ver.1)

Sea And Cake
Rating:
0/5 (0 votes)

Hard to play? Try these video lessons and learn fast.
                "Jacking The Ball"--song
The Sea and Cake--album
The Sea and Cake--artist

Two main parts of the song.
Play in relatively quick 4/4 time.


Main Riff--beginning (x5), middle1 (x3), middle2 (x3), end (x3)

G |----------------|7---77-6--4-6---|4--44-----------|----------------|
D |-------7---(7)--|----------------|-----(0)7---7---|5---------0-5(0)|
A |5---55----------|----------------|----------------|----------------|
E |----------------|----------------|----------------|----------------|


Verse Riff--play this sequence twice for each verse between the main riff

G |--------------11h12p11-----------|        |----------------|----------------|
D |0---00-9--------|------12------(0)   x3   |--------------0-|--------------0-|
A |--------12------|----------------|        |10--10----------|10101010--1010--|
E |----------------|----------------|        |----------------|----------------|

That's it--throw a few small variations in to keep it interesting, but Claridge 
doesn't really stray from this much at all.
Listen to the song to get the timing--my tabs are based on 16 beats per measure but
the high string #'s are hard to fit in with correct timing.


enjoy!

Ian
            
Hard to play? Try these video lessons and learn fast. | Correct




comments powered by Disqus
↑ Back to top | Tablatures and chords are parodies/interpretations of the original songs. You may use it for private study, scholarship, research or language learning purposes only