» » »

Everyday Bass tabs (ver.1)

Artists:  A B C D E F G H I J K L M N O P Q R S T U V W X Y Z # 

Everyday Bass tabs (ver.1)

Sea And Cake
Rating:
0/5 (0 votes)

Hard to play? Try these video lessons and learn fast.
                G|-----------------|
D|----9/11--9\7--9-|
A|-7---------------|  Main Part
E|-----------------|


G|-9--13--11-14-13--9--11--9-------|
D|---------------------------11-9--|
A|---------------------------------|  Transition
E|---------------------------------|


G|---------9-------|----9h11-13-11-9--|
D|----9h11---11-9--|------------------|
A|-12--------------|-12---------------| 2nd Part
E|-----------------|------------------|


G|---------------|
D|---------------|
A|-7-------------|  Coda
E|----10-7-9-10--|

This is my first bass tab, so suggestions/corrections are definitely welcome
            
Hard to play? Try these video lessons and learn fast. | Correct




comments powered by Disqus
↑ Back to top | Tablatures and chords are parodies/interpretations of the original songs. You may use it for private study, scholarship, research or language learning purposes only