» » »

Sea And Cake, All The Photos Bass tabs (ver.1)

Artists:  A B C D E F G H I J K L M N O P Q R S T U V W X Y Z # 

All The Photos Bass tabs (ver.1)

Sea And Cake Tabs
 Rating:
4/5 (4 votes)
All The Photos lessons Tabs too difficult? Try these video lessons and learn fast
                The Sea and Cake--Artist
Oui--Album
All The Photos--Song Title

This version has a minor correction in the third riff.

First Riff:

 |---------------9-|--------------|  G
 |-------9-9-------|--------------|  D
 |7-7--------------|----7h9-7-----|  A
 |-----------------|--------------|  E

Second Riff:

|- ----- -  ------ ---|- ----- -  ---------|- ----------------|-----------------|  G
|10-----(10)-----10---|- ----- -  ---------|- ------7-------9-|------7----------|  D
|- ----- -  ------ ---|10-----(10)---------|10----------------|-----------------|  A
|- ----- -  ------ ---|- ----- -  ---------|- ----------------|-----------------|  E

Transitional measure:

|8-----10-----12---|  G
|------- ------ ---|  D
|------- ------ ---|  A
|------- ------ ---|  E

Third Riff:

|-------11p9-------|------------------| G      |-----------------|------------ - ---| G     
|9-------  ------9p|7---------------7h| D  X 4 |---------------7-|------------(7)---| D  X 1
|--------  --------|------5-----------| A      |7---7---7-9------|------------ - ---| A     
|--------  --------|------------------| E      |-----------------|------------ - ---| E  

Back to Second Riff for ending.

Listen to the song to get your timing down.  h indicates hammeron, p indicates 
pulloff, brackets surround ghost notes.  For those of you who are Sea and Cake 
fans, I will have most of this album tabbed soon. 
Watch for updates.
            
Submit corrections

comments powered by Disqus
↑ Back to top | Sea And Cake Bass for All The Photos. Lyrics for acoustic guitar and electric guitar. Tablatures and chords are parodies/interpretations of the original songs. You may use it for private study, scholarship, research or language learning purposes only