» » »

Sea And Cake, Afternoon Speaker Bass tabs (ver.1)

Artists:  A B C D E F G H I J K L M N O P Q R S T U V W X Y Z # 

Afternoon Speaker Bass tabs (ver.1)

Sea And Cake Tabs
4/5 (4 votes)
Afternoon Speaker lessons Tabs too difficult? Try these video lessons and learn fast
                "Afternoon Speaker"--song
The Sea and Cake--artist

Main part of the song is very repetitive.
Play in quick 4/4 time.

G |--9---9---9---9-|         |--7---7---7---7-|
D |7---7---7---7---|   X 3   |0---0---0---0---|   X 2; then back to
A |----------------|         |----------------|         beginning.
E |----------------|         |----------------|

The break between verses is only one note played on G9.

The end part is a little more complex but still pretty easy.

G |9-------9-------|----------------|9-------9-------|----------------|
D |----9-----9--7--|------7-7-------|----9-----9--7--|------7-7-------|
A |----------------|-7--------------|----------------|-7--------------|
E |----------------|----------------|----------------|----------------|

G |----------------|----------------|----------------|----------------|
D |9-----------9---|7---------------|9-----------9---|7---------------|
A |----------------|----------------|----------------|----------------|
E |----------------|----------------|----------------|----------------|

That's it--now just play the following about seven times fading out.

G |9-------9-------|----------------|----------------|----------------|
D |----9-----9--7--|------7-7-------|9-----------9---|7---------------|
A |----------------|-7--------------|----------------|----------------|
E |----------------|----------------|----------------|----------------|

G |----------------|----------------|
D |9-----------9---|7---------------|    (repeat)
A |----------------|----------------|
E |----------------|----------------|

this is a good warm-up to get your fingers moving.

Submit corrections

comments powered by Disqus
↑ Back to top | Sea And Cake Bass for Afternoon Speaker. Lyrics for acoustic guitar and electric guitar. Tablatures and chords are parodies/interpretations of the original songs. You may use it for private study, scholarship, research or language learning purposes only