» » »

Scratching Post, Keep Looking My Way Bass tabs (ver.1)

Artists:  A B C D E F G H I J K L M N O P Q R S T U V W X Y Z # 

Keep Looking My Way Bass tabs (ver.1)

Scratching Post Tabs
 Rating:
4/5 (4 votes)
Keep Looking My Way lessons Tabs too difficult? Try these video lessons and learn fast
                This song is easy just its in a weird order.
Riff #1 x2
G|---------------------------------------------------------------------------------------------
D|---------------------------------------------------------------------------------------------
A|---2-2-2-2-2--------------2-2-2-2-----------------------------------------------------
D|----------------0-0-0--0-------------0-0-0-0-------------------------------------------

Riff #2 x1
G|---------------------------------------------------------------------------------------------
D|---------------------------------------------------------------------------------------------
A|---------------------------------------------------------------------------------------------
D|---4-4-4-4--5-5-5-5--2-2-2-2--5-5-5-5--------------------------------------------

Riff #1 x1

Riff #3 x1
G|---------------------------------------------------------------------------------------------
D|---------------------------------------------------------------------------------------------
A|---------------------------------------------------------------------------------------------
D|---4-4-4-4--5-5-5-5--0-0-0-0--5-5-5-5--------------------------------------------

Riff #1 x1
Riff #2 x1
Riff #1 x1
Riff #3 x1
Riff #1 x1

Riff #4 x2
G|---------------------------------------------------------------------------------------------
D|---------------------------------------------------------------------------------------------
A|---0-0-0-0-0-0-0---2-2-2-2-2-2-2--------------------------------------------------
D|----------------------2--------------------0-4-4-4-4-4-4-4--5-5-5-5-5-5-5-5-----

Riff #1 x1
Riff #2 x1
Riff #1 x1
Riff #3 x1
Riff #1 x1

Riff #5 x2
G|---------------------------------------------------------------------------------------------
D|---------------------------------------------------------------------------------------------
A|---------------------------------------------------------------------------------------------
D|---2-2-2-2-2-2-2--4-4-4-4-4-4-4-4--0-0-0-0-0-0-0-0--5-5-5-5-5-5-5-5---

Riff #4 x2

Riff #6 x4
G|---------------------------------------------------------------------------------------------
D|---------------------------------------------------------------------------------------------
A|--------------2-2-2-2---------------------------------------------------------------------
D|---0-0-0-0------------4-4-4-4-4-5-4-2-----------------------------------------------

Riff #5 x2
Riff #4 x4
Riff #1 x4
            
Submit corrections

comments powered by Disqus
↑ Back to top | Scratching Post Bass for Keep Looking My Way. Lyrics for acoustic guitar and electric guitar. Tablatures and chords are parodies/interpretations of the original songs. You may use it for private study, scholarship, research or language learning purposes only