>
 >
Blood Flame

Blood Flame Guitar Tabs

Scratching Post - Blood Flame chords, tabs, tablatures, lyrics

Guitar lessons | Add/correct | Request | Top 50 tabs Artists:  A B C D E F G H I J K L M N O P Q R S T U V W X Y Z 0-9

Blood Flame Guitar Tabs – Scratching Post

CD, Sheet music, Poster

Do you like Blood Flame? Share with your friends now
Tabs
BAND: Scratching Post
Something)
2 6 strings standard tuning.

Verse
"Take a minute to,find out,what's going on,what's goig down..."
e||------------------------------------------------------------|>
B||------------------------------------------------------------|>
G||------------------------------------------------------------|>
D||--3-3-3-3-3-3-3-3--6-6-6-6-6-6-6-6-11-11-11-11-11-11-11-11--|>
A||--3-3-3-3-3-3-3-3--6-6-6-6-6-6-6-6-11-11-11-11-11-11-11-11--|>
E||--1-1-1-1-1-1-1-1--4-4-4-4-4-4-4-4--9--9--9--9--9--9--9--9--|>
    [pm........................................................>
  <-------------------|| Gtr1 (Guy with the beard)
  <-------------------||
  <-------------------||
  <--8-8-8-8-8-8-8-8--||
  <--8-8-8-8-8-8-8-8--||
  <--6-6-6-6-6-6-6-6--||
<..................pm]

Chorus
"One step forward two steps back and i'm, up on my feet again..."
e||----------------------------------|| Both Gtrs
B||----------------------------------||
G||----------------------------------||
D||--3-6-8-11-8-11--3-3-6-8-11-8-11--||
A||--3-6-8-11-8-11--3-3-6-8-11-8-11--||
E||--1-4-6--9-6--9--1-1-4-6--9-6--9--||

Riff A
e||-----------------------------------------------------------------||
B||-----------------------------------------------------------------||
G||------------------------------3*---------------------------------||
D||--------------------------------------------------------------6--||
A||--------------------------------------------------------------6--||
E||--2-0-2--2-3-2-0-2--0-2-0-2-0----2-0-2--2-3-2-0-2--0-2-0-2-0--4--||
[pm...........................................................pm]

2nd Verse
(Gtr1 plays same thing as before,Gtr2 plays this)
e||--------------------------|| Gtr2 (That chick)
B||--------------------------||
G||--------------------------||
D||--3-----6----11-----8-----||
A||--3-----6----11-----8-----||
E||--1-----4-----9-----6-----||

3rd Verse
(Same thing for Gtr1,Gtr2 plays this)
e||----------------------------------|| Gtr2 (That Chick)
B||----------------------------------||
G||----------------------------------||
D||--3-3----6-6----11-11-----8-8-----||
A||--3-3----6-6----11-11-----8-8-----||
E||--1-1----4-4-----9--9-----6-6-----||

that's all of it,i think,any way that [pm...] shit up there,that meens
it's 
palm muting,the * meens a harmonic and all that > crap meens i just
didn't 
have enough space so i continued on the next line,ok?i'm all done here.





Comments


Popular Scratching Post tabs & chords
Bloodflame Bass Tabs
Bloodflame 1 Bass Tabs
Keep Looking My Way Bass Tabs
Rock Past It Bass Tabs
Rock Past It 1 Bass Tabs
Rock Past It Chords
Bloodflame Tabs
Pants Down Tabs
Rock Past It Ukulele


Song lyrics



↑ Back to top | Tablatures and chords are parodies/interpretations of the original songs. You may use it for private study, scholarship, research or language learning purposes only
© 2014 AZChords.com Contact us | Privacy policy | DMCA | Add/correct tabs | Request tabs | Top 50 tabs