» » »

Wind Of Change Tabs (ver.3)

Artists:  A B C D E F G H I J K L M N O P Q R S T U V W X Y Z # 

Wind Of Change Tabs (ver.3)

Scorpions
Rating:
0/5 (0 votes)

Tabs too difficult? Try these video lessons and learn fast.
                Here is the solo to Wind of Change by the Scorpions
i'm pretty sure it's right but this is my first tab so don't have a whinge if
it doesn't make sense.
thanks
weston


e|----------------------------------------------------------------------------
B|----10-12-12b14r12----10-12-12b14r12vvv-15b(17)--------12-13-12h13p12-------
G|--9-----------------9----------------------------14-14----------------14-12-
D|----------------------------------------------------------------------------
A|----------------------------------------------------------------------------
E|----------------------------------------------------------------------------
                                                                              

12b(14)----12-9-12-12b(14)-12vvv--9-10-10b(12)-9p7h9-7b(9)-7----7vvv----/9----
-------------------------------------------------------------10---------------


---------------------12-----------/17--15-13-12h13p12-------------------------
12-12b13r12b13r12b13----12b13-12---------------------------------------/12vv--
-------------------------------------------------------14--14-17-16vvv--------


----------------------------------------------------------22b(24)---
13-15--/17---------------/18-15b(17)-15--19b(21)-19-17-19-----------
-------------(12-14--12vvv)-----------------------------------------
            
Tabs too difficult? Try these video lessons and learn fast.




comments powered by Disqus
↑ Back to top | Tablatures and chords are parodies/interpretations of the original songs. You may use it for private study, scholarship, research or language learning purposes only