» » »

Scorpions, Wind Of Change Tabs (ver.2)

Artists:  A B C D E F G H I J K L M N O P Q R S T U V W X Y Z # 

Wind Of Change Tabs (ver.2)

Scorpions Tabs
Rating:
0/5 (0 votes)
Wind Of Change lessons Tabs too difficult? Try these video lessons and learn fast
                Wind of change


INTRO


-1-----|----1--|---1--|----1---------------------------------------
-1-----|----3--|---1--|----3---------------------------------------
-2-----|----2--|---2--|----2---------------------------------------
-3-----|----0--|---3--|----0---------------------------------------
-3-----|-------|---3--|--------------------------------------------
-1-----|-------|---1--|--------------------------------------------


---0-----|-------1----------------------0-----------------
---1-----|-------------3-----------------------1----------
---2-----|---------------------2-----------------------2--
---2-----|---0--------------------------------------------
---0-----|--------------------------0---------------------
---------|------------------------------------------------

         |------------------------------------------------
         |-----------3------------------------------------
         |-----------------4------------------------------
         |------------------------5-----------------------
         |------------------------------------------------
         |----3-------------------------------------------


1st Verse
--0----|----1--|----0---|--------------------------------
--1----|----3--|----1---|--------------------------------
--0----|----2--|----0---|--------------------------------
--2----|----0--|----2---|--------------------------------
--3----|-------|----3---|--------------------------------
-------|-------|--------|--------------------------------


---------1----------------0------------|--------------|
-------------3---------------1---------|-----3--------|
----------------2------------------2---|--------4-----|
---0-----------------------------------|-----------5--|
----------------------0----------------|--------------|
---------------------------------------|--3-----------|


---1----|----1---|----1----|
---1----|----3---|----1----|
---2----|----2---|----2----|
---3----|----0---|----3----|
---3----|--------|----3----|
---1----|--------|----1----|


--1----|----0-----|--------1-------------------0-------------|-------------
--3----|----1-----|-------------3-------------------1--------|-----3-------
--2----|----2-----|-------------------2-------------------2--|--------4----
--0----|----2-----|---0--------------------------------------|----------5--
-------|----0-----|------------------------0-----------------|-------------
-------|----------|------------------------------------------|--3----------


2nd/3rd Verse

--0-------------------------|---1------------------------------|
--1---/--/--/---/----/----/-|---3---------/--/--/---/----/----/|
--0--/--/--/---/----/----/--|---2--------/--/--/---/----/----/-|
--2-------------------------|---0------------------------------|
--3-------------------------|----------------------------------|
----------------------------|----------------------------------|


--0------------------------------
--1--------/--/--/---/----/----/-
--0-------/--/--/---/----/----/--
--2------------------------------
--3------------------------------
---------------------------------

---------1----------------0------------|--------------|---------------|3---
-------------3---------------1---------|-----3--------|-----3---------|-3--
----------------2------------------2---|--------4-----|---------4-----|-4--
---0-----------------------------------|-----------5--|-------------5-|-5--
----------------------0----------------|--------------|---------------|-5--
---------------------------------------|--3-----------|--3------------|-3--


Guitare Solo

-----------------12-12b13r12-12--------------12-12b13r12b13r12-------|
-----------14----------------------------14--------------------------|
-----14------------------------------14------------------------------|

------------------------------------------------------------
--15-17-------------12--13----------------------------------
------------14-14-------------14--12--14----12--------------
------------------------------------------------------------
------------------------------------------------------------
------------------------------------------------------------


-------------------------------------------
-------------------------------------------
---14----12--9--12--12b14r12r12-9--10------
-------------------------------------------
-------------------------------------------
-------------------------------------------


----------------------------------------
----------------------------------12----
-10b12--10-9-7-9b7-7-9r7r5-7----14------
----------------------------------------
----------------------------------------
----------------------------------------

And so on.
you have to fit the rest out.
i did enough work
            
Submit corrections

comments powered by Disqus
↑ Back to top | Scorpions Tabs for Wind Of Change. Lyrics for acoustic guitar and electric guitar. Tablatures and chords are parodies/interpretations of the original songs. You may use it for private study, scholarship, research or language learning purposes only