» » »

The Zoo Tabs (ver.1)

Artists:  A B C D E F G H I J K L M N O P Q R S T U V W X Y Z # 

The Zoo Tabs (ver.1)

Scorpions
Rating:
0/5 (0 votes)

Hard to play? Try these video lessons and learn fast.
                The Zoo by The Scorpions
Standard tuning

intro
e|------------------------------------------------------| 
B|------------------------------------------------------| 
G|------------------------------------------------------| 
D|-99999--7-9-7-5-7-9-7---------------------------------| 
A|-77777--5-7-5-3-5-7-5---------------------------------| 
E|------------------------------------------------------| 

Then as soon as you hit that last chord quickly go back to the beginning and play over 
again. You may have to listen to the song to get the timing right.

verse 

rhythm guitar

e|--------------------------| 
B|--------------------------| 
G|--------------------------| 
D|--------------------------| 
A|--------------------------| 
E|-0-0-0-0-0-0-0-0----------| keep repeating...listen to the song
pm................


lead guitar

e|-------------------------------| 
B|-------------------------------| 
G|-9-7------9-7------9-7-5-7-9-7-| 
D|-7-5------7-5------7-5-3-5-7-5-| 
A|-------------------------------| 
E|-------------------------------| keep repeating...listen to the song

Chorus

e|------------------------------------------------------| 
B|------------------------------------------------------| 
G|------------------------------------------------------| 
D|---7-2-----5---7-2--------2-2-2-2-2-2-----------------| 
A|-5-5-2-----3-5-5-2--------2-2-2-2-2-2-----------------| 
E|-3---0-------3---0--------0-0-0-0-0-0-----------------| 
                            pm  pm  pm
e|------------------------------------------------------| 
B|------------------------------------------------------| 
G|------------------------------------------------------| 
D|---7-2--5-4-7-2--------2-2-2-2-2-2--------------------| 
A|-5-5-2--3-2-5-2--------2-2-2-2-2-2--------------------| 
E|-3---0--------0--------0-0-0-0-0-0--------------------|listen to song for timing

After this play verse and chorus again the  play this under the solo:

e|------------------------------------------------------| 
B|------------------------------------------------------| 
G|-----------9-7-----------9-7-----------9-7-5-7-9-7----| 
D|-----------7-5-----------7-5-----------7-5-3-5-7-5----| 
A|------------------------------------------------------| 
E|-0-0-0-0-0-----0-0-0-0-0-----0-0-0-0-0----------------|
play this like 2 or 3 times

I will tab out the lead solo soon...
            
Hard to play? Try these video lessons and learn fast. | Correct




comments powered by Disqus
↑ Back to top | Tablatures and chords are parodies/interpretations of the original songs. You may use it for private study, scholarship, research or language learning purposes only