» » »

Still Loving You Tabs (ver.1)

Artists:  A B C D E F G H I J K L M N O P Q R S T U V W X Y Z # 

Still Loving You Tabs (ver.1)

Scorpions
Rating:
0/5 (0 votes)

Hard to play? Try these video lessons and learn fast.
                STILL LVING YOU (SOLO)

By 
Scorpions


This is the solo for the scorpions still loving you.  I didn't bother trying to emphasis the timing, just listen to the song, it's easy enough.

Sorry if I've made any mistakes, but I didn't have the song with me while writing this.

/ means slide
b means bend
h means hammer-on

e:-------------------------------------------------------------------------|
B:-----------------------------------------------------------------------13|
G:-----------5----------------------------------5-----5b(7)/12--14---15----|
D:--/5--7--8-----8--7--8--7--5--7/8--7--5--7--8-----8----------------------|
A:-------------------------------------------------------------------------|
E:-------------------------------------------------------------------------|


e:---------------------13-15-----------------------------------------------|
B:----------------------------15--13h(15)13------13b(15)-------------------|
G:--15--14--15--12--15------------------------15---------------------------|
D:-------------------------------------------------------------------------|
A:-------------------------------------------------------------------------|
E:-------------------------------------------------------------------------|



Hope you enjoy it,


Derek Boak
            
Hard to play? Try these video lessons and learn fast. | Correct




comments powered by Disqus
↑ Back to top | Tablatures and chords are parodies/interpretations of the original songs. You may use it for private study, scholarship, research or language learning purposes only