» » »

Rock You Like A Hurricane Tabs (ver.3)

Artists:  A B C D E F G H I J K L M N O P Q R S T U V W X Y Z # 

Rock You Like A Hurricane Tabs (ver.3)

Scorpions
Rating:
0/5 (0 votes)

Hard to play? Try these video lessons and learn fast.
                Keywords: tabulature,scorpions
Lines: 35

Here is "Rock you like a hurricane" by Scorpions to a person who requested 
it.

intro: 

    E5          G5	 A5       D5  E5
|--------------------------------------------|
|--------------------------------------------|	
|---9--9--9--------------2--2-----7---9--9--:|	(play this 3 times)
|---9--9--9-----5--5-----2--2-----7---9--9---|
|---7--7--7-----5--5-----0--0-----5---7--7---|
|---------------3--3-------------------------|

    E5          G5       A5       D
|---------------------------------2----
|---------------------------------3----		(then follow with this)
|---9--9--9--------------2--2-----2----
|---9--9--9-----5--5-----2--2-----0----
|---7--7--7-----5--5-----0--0----------
|---------------3--3-------------------

Verses begins without chords. Then on the end of each verse use E5 and D5

verse:
N.C.  -------- E5 E5 D5  N.C. D5 E5 N.C.  D5

chorus is the same as intro


Song is *easy* ,so I left timings out.

-- 
   Jarkko Eklund
    "Jake"                  " Never sleep with anyone crazier than yourself "  
            
Hard to play? Try these video lessons and learn fast. | Correct




comments powered by Disqus
↑ Back to top | Tablatures and chords are parodies/interpretations of the original songs. You may use it for private study, scholarship, research or language learning purposes only