» » »

Scorpions, Holiday Tabs (ver.1)

Artists:  A B C D E F G H I J K L M N O P Q R S T U V W X Y Z # 

Holiday Tabs (ver.1)

Scorpions Tabs
 Rating:
4/5 (4 votes)
Holiday lessons Tabs too difficult? Try these video lessons and learn fast
                %%%%%%%%%%%%%%%%%%%%%%%%%%%%%

HOLIDAY (SOLO)

S C O R P I O N S


%%%%%%%%%%%%%%%%%%%%%%%%%%%%%


/ means slide
b means 
bend
Sus means sustain the note


This not 100% correct, the part marked 
with ***** is wrong, but because I've been playing it like this for so long, 
I can't hear what the real notes are meant to be!!!




e:------------------------------------------------------5---3---------------|

B:--------------------------------3-3--5-6-3---5-6-5------------5-6-5--3----|


G:----------2-----------------2-------------------------------------------2-|

D:-----3---------5-2---5--3-5-----------------------------------------------|


A:5-------------------------------------------------------------------------|

E:--------------------------------------------------------------------------|





          **********

e:---------------------------------------------------------------3-4b(5)Sus-|

B:5-6-3-5---6-5-3------------------------------------3----3-5-6-------------|


G:----------------2-------------1/2--------1/2-----2---2--------------------|

D:---------------------2-3-5---------5--3-----------------------------------|


A:----------------------------------------------5---------------------------|

E:--------------------------------------------------------------------------|




Enjoy !!


Cottleston 
Cottleston Cottleston Pie,
A fly can't bird, but a bird can fly,
Ask me a 
riddle and I'll reply,
Cottleston Cottleston Cottleston Pie.

				The Tao of Pooh

cserve - 100105,540
            
Submit corrections

comments powered by Disqus
↑ Back to top | Scorpions Tabs for Holiday. Lyrics for acoustic guitar and electric guitar. Tablatures and chords are parodies/interpretations of the original songs. You may use it for private study, scholarship, research or language learning purposes only