>
 >
Crossfire

Crossfire Guitar Tabs

Scorpions - Crossfire chords, tabs, tablatures, lyrics

Guitar lessons | Add/correct | Request | Top 50 tabs Artists:  A B C D E F G H I J K L M N O P Q R S T U V W X Y Z 0-9

Crossfire Guitar Tabs – Scorpions

CD, Sheet music, Poster

Do you like Crossfire? Share with your friends now
Bass TabsTabs
Band:  Scorpions

Copyright (c)  (Harvest) (1984)
Version 1.0 - (02/07/06)



.  - palm mute           /  - slide up to
\  - slide down to       ~  - vibrato
h  - hammer on           b  - Bend
p  - pull off            Suffixes for bend
t  - tap                 f  - full bend    h - half bend
ph - pinched harmonic    q  - quarter bend t - tap bend
                         p  - pre bend
*  - see comment         ^  - Hold bend    r release bend
x  - Stuccatto           ~  - vibrato bend
,  - slight palm mute    () - ghost note, sustained note
"  - tremolo note        <> - harmonic

Tuning E A D G B E

 Drums on own

 Main Riff

               [PM]                           [PM]
|----------------------------------------------------------------|
|----------------------------------------------------------------|
|-9-----(9)--9-9-9-5-----(5)----/7-----(7)--7-7-7-4-----(4)----/-|
|-9-----(9)--9-9-9-5-----(5)----/7-----(7)--7-7-7-4-----(4)----/-|
|-7-----(7)--7-7-7-3-----(3)----/5-----(5)--5-5-5-2-----(2)----/-|
|----------------------------------------------------------------| Rpt 6 X

 Guitar 2 Enters 3rd time

|-12\--|
|------|
|------|
|------|
|------|
|------|

 Lead A

|---00-7----8----7---5-3-0-5-00-7----8----7777--|
|-5------55---55---5---5-5---55---55---55-5555--|
|-----------------------------------------------|
|-----------------------------------------------|
|-----------------------------------------------|
|-----------------------------------------------| Rpt 3 X


|---00-7----8----7---5-3-0-5-00-7----8----777--------(7)----------|
|-5------55---55---5---5-5---55---55---55-555--------(5)----------|
|-----------------------------------------------------------------|
|-----------------------------------------------------------------|
|-----------------------------------------------------------------|
|-----------------------------------------------------------------|

 Verse

 Light overdrive

 Riff A
|------------------------------------------|
|------------------------------------------|
|------------------------------------------|
|-9---(9)-----------------------7---(7)----|
|-7---(7)---9---(9)---5---(5)---5---(5)----|
|-----------7---(7)---3---(3)--------------| Rpt

|------------------------------------------|
|------------------------------------------|
|------------------------------------------|
|-----------9---(9)---7---(7)---5---(5)----|
|-9---(9)---7---(7)---5---(5)---3---(3)----|
|-7---(7)----------------------------------|

 Rpt Riff A

 Chorus Rpt Main Riff 4 X
 Rpt Verse
 Rpt Chorus

 Drum fill

 Rpt Lead A 4 X
 Rpt Chorus

 Guitar solo

 Pans left to right         ~~~~~~                           ~~~~
|-17\---17\---17\---17\-----------15--------------------------------|
|-------------------------15fb-------15p12-------12-----------------|
|------------------------------------------14-14----14brp12-14---\--|
|-------------------------------------------------------------------|
|-------------------------------------------------------------------|
|-------------------------------------------------------------------|

 Pans left to right
|-19\---19\---19\---19\---------10------12----14--------------------|
|----------------------------/8----8/10---/12----------12-8-10-12---|
|-----------------------7/9-9--------------------11/12--------------|
|-------------------------------------------------------------------|
|-------------------------------------------------------------------|
|-------------------------------------------------------------------|

 Guitar 1
                           ~~~~~~~~~~~~~~~~~~~~
[-10-12-14----12-14-15p12-22fb---22fb---22fb---\-12-----------------|
[----------15---------------------------------------15p12-----------|
[---------------------------------------------------------14b---r---|
[-------------------------------------------------------------------|
[-------------------------------------------------------------------|
[-------------------------------------------------------------------|
[Guitar 2
[-------------------------19\---------------------------------------|
[-------------------------------------------------------------------|
[-------------------------------------------------------------------|
[-------------------------------------------------------------------|
[-------------------------------------------------------------------|
[-------------------------------------------------------------------|

                     ~~~  ~~~~~        ~~~~~~~~~  ~~~~    ph~~~~~~~
|-------------------------------------------------------------------|
|-------------------------------------------------------------------|
|-12-----------------------------9-12-11b-------r11----99-9----8----|
|----14------------------------9------------------------------------|
|-------14-13-12-10-10b-r10-----------------------------------------|
|-------------------------------------------------------------------|

 Guitar 1
    h~~~~~~~~~~~~~~~
[-----------------------|
[-----------------------|
[-8-9-------------------|
[-----------------------|
[-----------------------|
[-----------------------|
[Guitar 2
[       ~~~~~~~~~~
[------17fb-------------|
[-----------------------|
[-----------------------|
[-----------------------|
[-----------------------|
[-----------------------|

 Rpt Chorus to fade

 Pans left to right
|-19\---19\---19\---19\---19\---19\---19\---19\-|
|-----------------------------------------------|
|-----------------------------------------------|
|-----------------------------------------------|
|-----------------------------------------------|
|-----------------------------------------------|Rpts every other time





END





Comments


Popular Scorpions tabs & chords
Make It Real 2 Bass Tabs
Rock You Like A Hurricane 3 Bass Tabs
White Dove Bass Tabs
Hey You 1 Chords
Lady Starlight Chords
Alien Nation 1 Tabs
Holiday 4 Tabs
No One Like You 4 Tabs
Send Me An Angel Tabs
Love Will Keep Us Alive Ukulele


Song lyrics



↑ Back to top | Tablatures and chords are parodies/interpretations of the original songs. You may use it for private study, scholarship, research or language learning purposes only
© 2014 AZChords.com Contact us | Privacy policy | DMCA | Add/correct tabs | Request tabs | Top 50 tabs