>
 >
Coast To Coast

Coast To Coast Bass Tabs

Scorpions - Coast To Coast chords, tabs, tablatures, lyrics

Guitar lessons | Add/correct | Request | Top 50 tabs Artists:  A B C D E F G H I J K L M N O P Q R S T U V W X Y Z 0-9

Coast To Coast Bass Tabs – Scorpions

CD, Sheet music, Poster

Do you like Coast To Coast? Share with your friends now
Bass TabsTabsTabs v2Tabs v3
-----------------------------------------------------------------------------
	           
                      Scorpions - Coast To Coast (BASS)
                       
-----------------------------------------------------------------------------

Tuning: Standard

=============================================================================



Bass



                                     H.           E  E   
G||-------|-------|-------|-------|---------------------|
D||-------|-------|-------|-------|---------------------|
A||-------|-------|-------|-------|------------------7--|
E||-------|-------|-------|-------|---------------------|


  E  E  E  Q    E   E  E     E  E  E  E  E  E  E  E   
--------------------------|--------------------------|
--------------------------|--------------------------|
--L--------7----L\--------|-----------------------7--|
-----0--0-----------0--0--|--3--0--2--0--3--0--0-----|


  E  E  E  Q    E   E  E     E  E  E  E  E  E  E  E   
--------------------------|--------------------------|
--------------------------|--------------------------|
--L--------7----L\--------|-----------------------7--|
-----0--0-----------0--0--|--3--0--2--0--3--0--0-----|


  E  E  E  Q    E   E  E     E  E  E  E  E  E  E  E   
--------------------------|--------------------------|
--------------------------|--------------------------|
--L--------7----L\--------|-----------------------7--|
-----0--0-----------0--0--|--3--0--2--0--3--0--0-----|


  E   E  E  Q    E   E  E     E  E  E  E  E  E  E  E   
---------------------------|--------------------------|
---------------------------|--------------------------|
--L\--------7----L\--------|-----------------------7--|
------0--0-----------0--0--|--3--0--2--0--3--0--0-----|


  E   E  E  Q    E   E  E     E  E  E  E  E  E  E  E   
---------------------------|--------------------------|
---------------------------|--------------------------|
--L\--------7----L\--------|-----------------------7--|
------0--0-----------0--0--|--3--0--2--0--3--0--0-----|


  E   E  E  Q    E   E  E     E  E  E  E  E  E  E  E   
---------------------------|--------------------------|
---------------------------|--------------------------|
--L\--------7----L\--------|-----------------------7--|
------0--0-----------0--0--|--3--0--2--0--3--0--0-----|


  E   E  E  Q    E   E  E     E  E  E  E  E  E  E  E   
---------------------------|--------------------------|
---------------------------|--------------------------|
--L\--------7----L\--------|-----------------------7--|
------0--0-----------0--0--|--3--0--2--0--3--0--0-----|


  E   E  E  Q    E   E  E     E  E  E  E  E  E  E  E   
---------------------------|--------------------------|
---------------------------|--------------------------|
--L\--------7----L\--------|-----------------------7--|
------0--0-----------0--0--|--3--0--2--0--3--0--0-----|


  E   E  E  Q    E   E  E     E  E  E  E  E  E  E  E   
---------------------------|--------------------------|
---------------------------|--------------------------|
--L\--------7----L\--------|-----------------------7--|
------0--0-----------0--0--|--3--0--2--0--3--0--0-----|


  E   E  E  Q    E   E  E     E  E  E  E  E  E  E  E   
---------------------------|--------------------------|
---------------------------|--------------------------|
--L\--------7----L\--------|-----------------------7--|
------0--0-----------0--0--|--3--0--2--0--3--0--0-----|


  E   E  E  Q    E   E  E     E  E  E  E  E  E  E  E   
---------------------------|--------------------------|
---------------------------|--------------------------|
--L\--------7----L\--------|-----------------------7--|
------0--0-----------0--0--|--3--0--2--0--3--0--0-----|


  E   E  E  Q    E   E  E     E  E  E  E  E  E  E  E     Q    E  E  H         
---------------------------|--------------------------|----------------------|
---------------------------|--------------------------|----------------------|
--L\--------7----L\--------|--------------------------|----------------------|
------0--0-----------0--0--|--3--0--2--0--3--0--0--0--|-------0-----3--------|


                |---3--|                               
  Q    E  E  E  E   E  E  E     E  E  E  E  Q    Q     
-----------------------------|------------------------|
-----------------------------|------------------------|
--3-------7--7---------------|------------------------|
----------------0--/5--3--2--|--0-----0-----3---------|


               |---3--|                               
  Q    E  Q    E   E  E  E     E  E  E  E  Q    Q     
----------------------------|------------------------|
----------------------------|------------------------|
--5-------7-----------------|------------------------|
----------0----0--/5--3--2--|--0-----0-----3---------|


                |---3--|                                                       
  Q    E  E  E  E   E  E  E     H        Q    Q       E  E  E  E  E  E  E  E   
-----------------------------|---------------------|--------------------------|
-----------------------------|---------------------|--------------------------|
--3-------7--7---------------|---------------------|--5--5--5--5--5--5--5--5--|
----------------0--/5--3--2--|--0--------3---------|--------------------------|


  E  E  E  E  E  E  E  E     E   E  E  Q    E   E  E   
--------------------------|---------------------------|
--------------------------|---------------------------|
--5--5--5--5--5--5--5--7--|--L\--------7----L\--------|
--------------------------|------0--0-----------0--0--|


  E  E  E  E  E  E  E  E     E   E  E  Q    E   E  E   
--------------------------|---------------------------|
--------------------------|---------------------------|
-----------------------7--|--L\--------7----L\--------|
--3--0--2--0--3--0--0-----|------0--0-----------0--0--|


  E  E  E  E  E  E  E  E     E   E  E  Q    E   E  E   
--------------------------|---------------------------|
--------------------------|---------------------------|
-----------------------7--|--L\--------7----L\--------|
--3--0--2--0--3--0--0-----|------0--0-----------0--0--|


  E  E  E  E  E  E  E  E     E   E  E  Q    E   E  E   
--------------------------|---------------------------|
--------------------------|---------------------------|
-----------------------7--|--L\--------7----L\--------|
--3--0--2--0--3--0--0-----|------0--0-----------0--0--|


  E  E  E  E  E  E  E  E     E   E  E  Q    E   E  E   
--------------------------|---------------------------|
--------------------------|---------------------------|
-----------------------7--|--L\--------7----L\--------|
--3--0--2--0--3--0--0-----|------0--0-----------0--0--|


  E  E  E  E  E  E  E  E     E   E  E  Q    E   E  E   
--------------------------|---------------------------|
--------------------------|---------------------------|
-----------------------7--|--L\--------7----L\--------|
--3--0--2--0--3--0--0-----|------0--0-----------0--0--|


  E  E  E  E  E  E  E  E     E   E  E  Q    E   E  E   
--------------------------|---------------------------|
--------------------------|---------------------------|
-----------------------7--|--L\--------7----L\--------|
--3--0--2--0--3--0--0-----|------0--0-----------0--0--|


  E  E  E  E  E  E  E  E     E   E  E  Q    E   E  E   
--------------------------|---------------------------|
--------------------------|---------------------------|
-----------------------7--|--L\--------7----L\--------|
--3--0--2--0--3--0--0-----|------0--0-----------0--0--|


                                                                  |---3--|      
  E  E  E  E  E  E  E  E     Q    E  E  H           Q    E  E  E  E   E  E  E   
--------------------------|----------------------|-----------------------------|
--------------------------|----------------------|-----------------------------|
--------------------------|----------------------|--3-------7--7---------------|
--3--0--2--0--3--0--0--0--|-------0-----3--------|----------------0--/5--3--2--|


                                        |---3--|                               
  E  E  E  E  Q    Q       Q    E  Q    E   E  E  E     E  E  E  E  Q    Q     
------------------------|----------------------------|------------------------|
------------------------|----------------------------|------------------------|
------------------------|--5-------7-----------------|------------------------|
--0-----0-----3---------|----------0----0--/5--3--2--|--0-----0-----3---------|


                |---3--|                                                       
  Q    E  E  E  E   E  E  E     H        Q    Q       E  E  E  E  E  E  E  E   
-----------------------------|---------------------|--------------------------|
-----------------------------|---------------------|--------------------------|
--3-------7--7---------------|---------------------|--5--5--5--5--5--5--5--5--|
----------------0--/5--3--2--|--0--------3---------|--------------------------|


  E  E  E  E  E  E  E  E     E   E  E  Q    E   E  E   
--------------------------|---------------------------|
--------------------------|---------------------------|
--5--5--5--5--5--5--5--7--|--L\--------7----L\--------|
--------------------------|------0--0-----------0--0--|


  E  E  E  E  E  E  E  E     E   E  E  Q    E   E  E   
--------------------------|---------------------------|
--------------------------|---------------------------|
-----------------------7--|--L\--------7----L\--------|
--3--0--2--0--3--0--0-----|------0--0-----------0--0--|


  E  E  E  E  E  E  E  E     E   E  E  Q    E   E  E   
--------------------------|---------------------------|
--------------------------|---------------------------|
-----------------------7--|--L\--------7----L\--------|
--3--0--2--0--3--0--0-----|------0--0-----------0--0--|


  E  E  E  E  E  E  E  E     E   E  E  Q    E   E  E   
--------------------------|---------------------------|
--------------------------|---------------------------|
-----------------------7--|--L\--------7----L\--------|
--3--0--2--0--3--0--0-----|------0--0-----------0--0--|


  E  E  E  E  E  E  E  E     E   E  E  Q    E   E  E   
--------------------------|---------------------------|
--------------------------|---------------------------|
-----------------------7--|--L\--------7----L\--------|
--3--0--2--0--3--0--0-----|------0--0-----------0--0--|


  E  E  E  E  E  E  E  E     E   E  E  Q    E   E  E   
--------------------------|---------------------------|
--------------------------|---------------------------|
-----------------------7--|--L\--------7----L\--------|
--3--0--2--0--3--0--0-----|------0--0-----------0--0--|


  E  E  E  E  E  E  E  E     E   E  E  Q    E   E  E   
--------------------------|---------------------------|
--------------------------|---------------------------|
-----------------------7--|--L\--------7----L\--------|
--3--0--2--0--3--0--0-----|------0--0-----------0--0--|


  E  E  E  E  E  E  E  E     E   E  E  Q    E   E  E   
--------------------------|---------------------------|
--------------------------|---------------------------|
-----------------------7--|--L\--------7----L\--------|
--3--0--2--0--3--0--0-----|------0--0-----------0--0--|


                                                                 |---3--|      
  E  E  E  E  E  E  E  E     E  E  Q    H           Q    E  Q    E   E  E  E   
--------------------------|----------------------|----------------------------|
--------------------------|--2-------------------|----------------------------|
--------------------------|----------------------|--3-------7-----------------|
--3--0--2--0--3--0--0--0--|--------0----3--------|---------------0--/5--3--2--|


                                      |---3--|                             
  Q    Q    Q    Q       Q    E  Q    E   E  E  E     Q    Q    Q    Q     
----------------------|----------------------------|----------------------|
----------------------|----------------------------|----------------------|
----------------------|--5-------7-----------------|----------------------|
--0----0----3---------|----------0----0--/5--3--2--|--0----0----3---------|


               |---3--|                                                        
  Q    E  Q    E   E  E  E     Q    Q    Q    Q       E  E  E  E  E  E  E  E   
----------------------------|----------------------|--------------------------|
----------------------------|----------------------|--------------------------|
--3-------7-----------------|----------------------|--5--5--5--5--5--5--5--5--|
---------------0--/5--3--2--|--0----0----3---------|--------------------------|


  E  E  E  E  E  E  E  E     E   E  E  Q    E   E  E   
--------------------------|---------------------------|
--------------------------|---------------------------|
--5--5--5--5--5--5--5--7--|--L\--------7----L\--------|
--------------------------|------0--0-----------0--0--|


  E  E  E  E  E  E  E  E     E   E  E  Q    E   E  E   
--------------------------|---------------------------|
--------------------------|---------------------------|
-----------------------7--|--L\--------7----L\--------|
--3--0--2--0--3--0--0-----|------0--0-----------0--0--|


  E  E  E  E  E  E  E  E     E   E  E  Q    E   E  E   
--------------------------|---------------------------|
--------------------------|---------------------------|
-----------------------7--|--L\--------7----L\--------|
--3--0--2--0--3--0--0-----|------0--0-----------0--0--|


  E  E  E  E  E  E  E  E     E   E  E  Q    E   E  E   
--------------------------|---------------------------|
--------------------------|---------------------------|
-----------------------7--|--L\--------7----L\--------|
--3--0--2--0--3--0--0-----|------0--0-----------0--0--|


  E  E  E  E  E  E  E  E     E   E  E  Q    E   E  E   
--------------------------|---------------------------|
--------------------------|---------------------------|
-----------------------7--|--L\--------7----L\--------|
--3--0--2--0--3--0--0-----|------0--0-----------0--0--|


  E  E  E  E  E  E  E  E     E   E  E  Q    E   E  E   
--------------------------|---------------------------|
--------------------------|---------------------------|
-----------------------7--|--L\--------7----L\--------|
--3--0--2--0--3--0--0-----|------0--0-----------0--0--|


  E  E  E  E  E  E  E  E     E   E  E  Q    E   E  E   
--------------------------|---------------------------|
--------------------------|---------------------------|
-----------------------7--|--L\--------7----L\--------|
--3--0--2--0--3--0--0-----|------0--0-----------0--0--|


  E  E  E  E  E  E  E  E     E   E  E  Q    E   E  E   
--------------------------|---------------------------|
--------------------------|---------------------------|
-----------------------7--|--L\--------7----L\--------|
--3--0--2--0--3--0--0-----|------0--0-----------0--0--|


                                                                 |---3--|      
  E  E  E  E  E  E  E  E     E  E  Q    H           Q    E  Q    E   E  E  E   
--------------------------|----------------------|----------------------------|
--------------------------|--2-------------------|----------------------------|
-----------------------7--|----------------------|--3-------7-----------------|
--3--0--2--0--3--0--0-----|--------0----3--------|---------------0--/5--3--2--|


                                      |---3--|                             
  Q    Q    Q    Q       Q    E  Q    E   E  E  E     Q    Q    Q    Q     
----------------------|----------------------------|----------------------|
----------------------|----------------------------|----------------------|
----------------------|--5-------7-----------------|----------------------|
--0----0----3---------|----------0----0--/5--3--2--|--0----0----3---------|


               |---3--|                                                        
  Q    E  Q    E   E  E  E     Q    Q    Q    Q       E  E  E  E  E  E  E  E   
----------------------------|----------------------|--------------------------|
----------------------------|----------------------|--------------------------|
--3-------7-----------------|----------------------|--5--5--5--5--5--5--5--5--|
---------------0--/5--3--2--|--0----0----3---------|--------------------------|


  E  E  E  E  E  E  E  E     E   E  E  Q    E   E  E   
--------------------------|---------------------------|
--------------------------|---------------------------|
--5--5--5--5--5--5--5--7--|--L\--------7----L\--------|
--------------------------|------0--0-----------0--0--|


  E  E  E  E  E  E  E  E     E   E  E  Q    E   E  E   
--------------------------|---------------------------|
--------------------------|---------------------------|
-----------------------7--|--L\--------7----L\--------|
--3--0--2--0--3--0--0-----|------0--0-----------0--0--|


  E  E  E  E  E  E  E  E     E   E  E  Q    E   E  E   
--------------------------|---------------------------|
--------------------------|---------------------------|
-----------------------7--|--L\--------7----L\--------|
--3--0--2--0--3--0--0-----|------0--0-----------0--0--|


  E  E  E  E  E  E  E  E     E   E  E  Q    E   E  E   
--------------------------|---------------------------|
--------------------------|---------------------------|
-----------------------7--|--L\--------7----L\--------|
--3--0--2--0--3--0--0-----|------0--0-----------0--0--|


  E  E  E  E  E  E  E  E     E   E  E  Q    E   E  E   
--------------------------|---------------------------|
--------------------------|---------------------------|
-----------------------7--|--L\--------7----L\--------|
--3--0--2--0--3--0--0-----|------0--0-----------0--0--|


  E  E  E  E  E  E  E  E     E   E  E  Q    E   E  E   
--------------------------|---------------------------|
--------------------------|---------------------------|
-----------------------7--|--L\--------7----L\--------|
--3--0--2--0--3--0--0-----|------0--0-----------0--0--|


  E  E  E  E  E  E  E  E     E   E  E  Q    E   E  E   
--------------------------|---------------------------|
--------------------------|---------------------------|
-----------------------7--|--L\--------7----L\--------|
--3--0--2--0--3--0--0-----|------0--0-----------0--0--|


  E  E  E  E  E  E  E  E     E   E  E  Q    E   E  E   
--------------------------|---------------------------|
--------------------------|---------------------------|
-----------------------7--|--L\--------7----L\--------|
--3--0--2--0--3--0--0-----|------0--0-----------0--0--|


  E  E  E  E  E  E  E  E                
--------------------------|-----|-----||
--------------------------|-----|-----||
-----------------------7--|-----|-----||
--3--0--2--0--3--0--0-----|-----|-----||




Duration Legend
---------------
W - whole
H - half
Q - quarter
E - 8th
S - 16th
T - 32nd
X - 64th
. - note dotted
|-n-|  - n-tuplets


Tablature Legend
----------------
L - tied note
x - dead note
g - grace note
(n) - ghost note
> - accentuded note
NH - natural harmonic
AH - artificial harmonic
TH - tapped harmonic
SH - semi harmonic
PH - pitch harmonic
h - hammer on
p - pull off
b - bend
br - bendRelease
pb - preBend
pbr - preBendRelease
brb - bendReleaseBend
\n/ - tremolo bar dip
\n - tremolo bar dive
-/n - tremolo bar Release up
/n\ - tremolo bar inverted dip
/n - tremolo bar return
-\n - tremolo bar Release down
S - shift slide
s - legato slide
/ -  slide into from below or out of upwards
\ -  slide into from above or out of downwards
~ - vibrato
W - wide vibrato
tr - trill
TP - tremolo picking
T - tapping
S - slap
P - pop
< - fade in
^ - brush up
v - brush down





Comments


Popular Scorpions tabs & chords
Eye To Eye 1 Chords
In Trance 1 Chords
Wind Of Change 3 Chords
You Give Me All I Need Chords
Blood Too Hot Tabs
Hey You Tabs
NOW! Tabs
Still Loving You 2 Tabs
The Best Is Yet To Come Ukulele
White Dove Ukulele


Song lyrics



↑ Back to top | Tablatures and chords are parodies/interpretations of the original songs. You may use it for private study, scholarship, research or language learning purposes only
© 2014 AZChords.com Contact us | Privacy policy | DMCA | Add/correct tabs | Request tabs | Top 50 tabs