» » »

Big City Nights Tabs (ver.4)

Artists:  A B C D E F G H I J K L M N O P Q R S T U V W X Y Z # 

Big City Nights Tabs (ver.4)

Scorpions
Rating:
4/5 (3 votes)

Hard to play? Try these video lessons and learn fast.
                BAND= SCORPIONS(THE BEST)
SONG= BIG CITY NIGHTS
ALBUM= LOVE AT FIRST STING (1984)
TUNING= STANDARD

h= hammer on
p= pull off
b= bend
/= slide up
\= slide down
~= vibrato
br= bend then release

INTRO SOLO;

e --------------------------------------------------------|
B --------------------------------------------------------|
G --------------------------------------------------------|
D -------------5-7~~~---13b14--12~~-----9h10p9---9--------|
A --0-3/7-------------------------------------h12---10-7--|
E --------------------------------------------------------|

e ----------------------------------12--10-9h10p9---10-12-------|
  ----------------------------------------------h10---------10--| (let ring)
  --------------------------------------------------------------|
  ------------5-7~~~13b14--12~~---------------------------------|
  --0-3/7-------------------------------------------------------|
E --------------------------------------------------------------|

SOLO; SOME OF THIS MIGHT BE WRONG BUT U SHOULD B ABLE TO CORRECT IT YOURSELF

e -------------------------------------------------------|
  -------------------------------------------------------|
  -------------------------------------------------------|
  -------------5-7~~~--13b14--12~~-----9h10p9---9--------|
  --0-3/7------------------------------------h12---10-7--|
E -------------------------------------------------------|

e -------------------------------------12--10-9h10p9--10-12--|
  -------------------------------------------------h10-------|
  -----------------------------------------------------------|
  -------------5-7~~~--13b14--12~~---------------------------|
  --0-3/7----------------------------------------------------|
E -----------------------------------------------------------|

e --17---17--15--17-19-16b----17--15-13-12h13p12------------------------|
  ----------------------------------------------h15--17-15-13-12-13-12--|
  ----------------------------------------------------------------------|
  ----------------------------------------------------------------------|
  ----------------------------------------------------------------------|
E ----------------------------------------------------------------------|

BEND UP TO 22*, THEN WITHOUT RELEASING, BEND UP TO 23*
e --21b22*b23*--19--17-16-17b-----------------------------------|
  ---------------------------17---12h13p12---12h13p12h13p12h13--|
  --------------------------------------------------------------|
  --------------------------------------------------------------|
  --------------------------------------------------------------|
E --------------------------------------------------------------|

e ---------------------------------------------------------------------|
  ------------------------------------------10--9b-----10-8b--12--9b---|
  --14-12-10-------7brh8p7h8p7h8--------9-9---------9-9----------------|
  -----------11--9---------------9-8-----------------------------------|
  -----------------------------------7---------------------------------|
E ---------------------------------------------------------------------|

*THAT PART IS ROBABLY WRONG*
e ---------------------------------------------------------------------|
  ---------10---8--12---9-10~------------------------------------------|
  --9-9-9-----9--------------------------------------------------------|
  ---------------------------------9b---7------------------------------|
  ----------------------------------------*7-6-5-6-7-6-5-6-7b*-6-5-----|
E -----------------------------------------------------------------5---|

e --17b---15-13-12h13p12--------------12-10-12---12-10-9h10p9--10-12---------|
  ---------------------h15--17-15--12-----------------------h10------10~~~~~-|
  ---------------------------------------------------------------------------|
  ---------------------------------------------------------------------------|
  ---------------------------------------------------------------------------|
E ---------------------------------------------------------------------------|

THEN IN THE LAST CHORUS, AFTER A FEW SECONDS, MATTHIAS PLAYS THE FIRST LINE A FEW TIMES 
THE SONG DIES OUT.

I HOPE THIS WILL BE CLEAR TO YOU BECAUSE I,M NOT VERY GOOD AT TRANSCRIBING SONGS SO THIS 
ME AGES TO DO.
            
Hard to play? Try these video lessons and learn fast. | Correct




comments powered by Disqus
↑ Back to top | Tablatures and chords are parodies/interpretations of the original songs. You may use it for private study, scholarship, research or language learning purposes only