» » »

Big City Nights Bass tabs (ver.1)

Artists:  A B C D E F G H I J K L M N O P Q R S T U V W X Y Z # 

Big City Nights Bass tabs (ver.1)

Scorpions
Rating:
0/5 (0 votes)

Hard to play? Try these video lessons and learn fast.
                Album:Love at First Sting
Tuning:Standard

Riff A Verse 1  "When the day light...."

G:-----------------------------------------------------|
D:-----------------------------------------------------|
A:-----------------------------3--x--3--3---5--x--5--5-|
E:---5--x--5--5---1--x--1--1---------------------------|


G:-----------------------------------------------------|
D:-----------------------------------------------------|
A:-----------------------------3--x--3--3---7--x--7--7-|
E:---5--x--5--5---1--x--1--1---------------------------|


"There is no..... "

G:-------|-------|-------|-------|--------------------|
D:-------|-------|-------|-------|--------------------|
A:-------|-------|---3---|---2---|--------------------|
E:---0---|---3---|-------|-------|---3--2--0----------|
            
Hard to play? Try these video lessons and learn fast. | Correct




comments powered by Disqus
↑ Back to top | Tablatures and chords are parodies/interpretations of the original songs. You may use it for private study, scholarship, research or language learning purposes only