>
 >
Animal Magnetism

Animal Magnetism Guitar Tabs

Scorpions - Animal Magnetism chords, tabs, tablatures, lyrics

Guitar lessons | Add/correct | Request | Top 50 tabs Artists:  A B C D E F G H I J K L M N O P Q R S T U V W X Y Z 0-9

Animal Magnetism Guitar Tabs – Scorpions

CD, Sheet music, Poster

Do you like Animal Magnetism? Share with your friends now
TabsTabs v2Tabs v3
Band:  Scorpions

Copyright (c)  (Harvest) (1980)
Version 1.0 - (26/05/05)



.  - palm mute           /  - slide up to
\  - slide down to       ~  - vibrato
h  - hammer on           b  - Bend
p  - pull off            Suffixes for bend
t  - tap                 f  - full bend    h - half bend
ph - pinched harmonic    q  - quarter bend t - tap bend
*  - see comment         ^  - Hold bend    r release bend
x  - Stuccatto           ~  - vibrato bend
,  - slight palm mute    () - ghost note, sustained note
"  - tremolo note        <> - Trill

Tunning E A D G B E
 

 Intro 

 Fade in with Reverb and feedback effects

 These notes are probably played by plucking strings between
 bridge and tail piece.
 Cleanish guitar with flange effect/reverb
E------------------------------------|
B-12-----12-------------12--------12-|
G----------------------------12------|
D------------------------------------|
A------------------------------------|
E------------------------------------| Rpt 3 X

 Full distortion.
 This guitar fades in                              To feedback
E-------------------------------------------------------------------|
B-------------------------------------------------------------------|
G-------------------------------------------------------------------|
D-------------------------------------------------------------------|
A-7----------------------------(7)----------------------------------|
E-0----------------------------(0)----------------------------------|

                                   ~~~~~~~~~~~~
E-----------------------------------------------|
B-----------------------------------------------|
G-----------------------------------------------|
D---------------------7-6-----------------------|
A-7-----------------------7--7-7-7/8------------|
E-0------------------(0)------------------------|

                                   ~~~~~~~         ~~~
E-----------------------------------------------------------|
B-----------------------------------------------------------|
G-----------------------------------------------------------|
D---------------------7-6-----------------------------------|
A-7-----------------------7--7-7-7/8------8-8-8-8/10--\8----|
E-0------------------(0)------------------------------------|

 Rpt

 Main Riff

  Guitar 1
  [----------------PM-----------------]
E[-------------------------------------------------|
B[-------------------------------------------------|
G[-------------------------------------------------|
D[-------------------------------------------------|
A[-7-7-7-8-7-7-7-7-7-8-7-7-7-7-7-8-7-7-------5---5-|
E[-------------------------------------5-7-8---8---|
 [Guitar 2
E[-------------------------------------------------|
B[-------------------------------------------------|
G[-9-\---------------------9-\---------------------|
D[-9-\---------------------9-\---------------------|
A[-7-\---------------------7-\---------------5---5-|
E[-------------------------------------5-7-8---8---|

  Guitar 1
  [---------PM----------]  h
E[----------------------------------------------|
B[----------------------------------------------|
G[---------------------------10--10--10--10--10-|
D[---------------------------10--10--10--10--10-|
A[-7-7-7-8-7-7-7-7-7-8-7p6-7-8---8---8---8---8--|
E[----------------------------------------------|
 [Guitar 2
E[----------------------------------------------|
B[----------------------------------------------|
G[-9-\-----------------------10--10--10--10--10-|
D[-9-\-----------------------10--10--10--10--10-|
A[-7-\-----------------------8---8---8---8---8--|
E[----------------------------------------------|

 Rpt

  Verse

 Riff A
 [----------------PM-----------------]
E-------------------------------------|
B-------------------------------------|
G-------------------------------------|
D-------------------------------------|
A-7-7-7-8-7-7-7-7-7-8-7-7-7-7-7-8-7-7-|
E-------------------------------------|

 Riff B
[-----------------------PM---------------------------]
E-------------------------------------------------------------|
B-------------------------------------------------------------|
G-------------------------------------------------------------|
D-------------------------------------------------------5---5-|
A-7-7-7-8-7-7-7-7-7-8-7-7-7-7-7-8-7-7-7-7-7-8-7-7-5-7-8---8---|
E-------------------------------------------------------------|


 [----------------PM-----------------]
E-------------------------------------|
B-------------------------------------|
G-------------------------------------|
D-------------------------------------|
A-7-7-7-8-7-7-7-7-7-8-7-7-7-7-7-8-7-7-|
E-------------------------------------|
 [----------------PM-----------------]
E----------------------------------------------------------|
B----------------------------------------------------------|
G---------------------------------------10--10--10--10--10-|
D---------------------------------------10--10--10--10--10-|
A-7-7-7-8-7-7-7-7-7-8-7-7-7-7-7-8-7p6-7-8---8---8---8---8--|
E----------------------------------------------------------|

 Rpt Riffs A & B 2 X 

 Chorus

E------------------------------|
B------------------------------|
G-10-\9--/10-\7--/12----\9-/10-|
D-10-\7--/10-\7--/12----\9-/10-|
A-8--\7--/8--\7--/10----\7-/8--|
E------------------------------|

  Guitar 1
  [----------------PM-----------------]
E[-------------------------------------------------|
B[-------------------------------------------------|
G[-------------------------------------------------|
D[-------------------------------------------------|
A[-7-7-7-8-7-7-7-7-7-8-7-7-7-7-7-8-7-7-------5---5-|
E[-------------------------------------5-7-8---8---|
 [Guitar 2
E[-------------------------------------------------|
B[-------------------------------------------------|
G[-9-\---------------------------------------------|
D[-9-\---------------------------------------------|
A[-7-\---------------------------------------------|
E[-------------------------------------------------|

E------------------------------|
B------------------------------|
G-10-\9--/10-\7--/12----\9-/10-|
D-10-\7--/10-\7--/12----\9-/10-|
A-8--\7--/8--\7--/10----\7-/8--|
E------------------------------|

 Rpt Main Riff, 
 Rpt Verse 

 Additional Verse guitar appears halfway through 2nd verse.
                              ~~~~~~
E------------------------------------------|
B------------------------------------------|
G-9----------7-------\5-------3-----5-5-4--|
D-10---------9-------\5-------------5-5-5--|
A------------------------------------------|
E------------------------------------------|
                               ~~~~~
E------------------------------------------------|
B-6-6-5-----5------/6-6-\5-----------------5-5\3-|
G-5-5-4-----4------/5-5-\4-----4----\2\----4-4\2-|
D------------------------------------------------|
A------------------------------------------------|
E------------------------------------------------|

 Rpt Chorus
 Rpt Main Riff

E-------------------------------------------------------------------|
B-------------------------------------------------------------------|
G-------------------------------------------------------------------|
D-------------------------------------------------------------------|
A-2------------------------------(2)--------------------------------|
E-0------------------------------(0)--------------------------------|

 Rpt Intro

 Backing for guitat solo is Verse structure
 
 Guitar solo

 with delay
E-------------|
B-10fb-r10bf--|
G-------------|
D-------------|
A-------------|
E-------------| Rpt 6 X
                                               ~~~~~~~~~~~
E---------------------------------------------------------|
B-12---(12)----12-13-13fb----13r--12-10-12--10fb----------|
G---------------------------------------------------------|
D---------------------------------------------------------|
A---------------------------------------------------------|
E---------------------------------------------------------|
                  ~~~~~~~~~~     ~~~~~~
E------------------------------------------------|
B-10fb---r10--8--10---------\7-8-7-----7-8-7-----|
G--------------------------------------------9\--|
D------------------------------------------------|
A------------------------------------------------|
E------------------------------------------------|
                           ~~~~~~~                           ~~~~~
E------------------------------------------------------------------|
B-13--12--13--12--13--12--13fb----12-13-13fb----13r-13-12-10fb-----|
G------------------------------------------------------------------|
D------------------------------------------------------------------|
A------------------------------------------------------------------|
E------------------------------------------------------------------|
                   ~~~~~~~~~
E-------------------------------------------------------|
B-10fb----r10--8--10--------6-/8-\6---6-/8-\6----8---\--|
G---------------------------5-/7-\5---5-/7-\5----7---\--|
D-------------------------------------------------------|
A-------------------------------------------------------|
E-------------------------------------------------------|

 Rpt Verse
 Rpt Chorus 2 X
 Rpt Main Riff

E-------------------------------------------------------------------|
B-6-------------------------(6)-------------------------------------|
G-9-------------------------(9)-------------------------------------|
D-9-------------------------(9)-------------------------------------|
A-7-------------------------(7)-------------------------------------|
E-0-------------------------(0)-------------------------------------|



END





Comments


Popular Scorpions tabs & chords
Loving You Sunday Morning Bass Tabs
What U Give U Get Back Chords
Crazy World Tabs
Ive Got To Be Free Tabs
Lady Starlight Tabs
Lovedrive Tabs
Now 1 Tabs
Still Loving You 3 Tabs
Daddys Girl Ukulele
Future Never Dies Ukulele


Song lyrics



↑ Back to top | Tablatures and chords are parodies/interpretations of the original songs. You may use it for private study, scholarship, research or language learning purposes only
© 2014 AZChords.com Contact us | Privacy policy | DMCA | Add/correct tabs | Request tabs | Top 50 tabs