>
 >
They Live

They Live Guitar Tabs

Schoolyard Heroes - They Live chords, tabs, tablatures, lyrics

Guitar lessons | Add/correct | Request | Top 50 tabs Artists:  A B C D E F G H I J K L M N O P Q R S T U V W X Y Z 0-9

They Live Guitar Tabs – Schoolyard Heroes

CD, Sheet music, Poster

Do you like They Live? Share with your friends now
Tabs
Schoolyard Heroes-They Live
This is the first song I've ever sat down and typed out the tab for, so
you are more than welcome to send questions, suggestions, and criticism to


--------------------
DETUNE HALF A STEP
--------------------
no distortion
Eb :--------------------------------------------------------------------|
Bb :--------------------------------------------------------------------|
Gb :------------------------------------------------------13------------|
Db :--11--11--11--11--11--11-------11--11--11--11--11--11---------------|
Ab :--------------------------------------------------------------------|
Eb :----9---9---9---9---9---9--5-9---9---9---9---9---9---9---9----------|

with distortion
Eb :--------------------------------------------------------------------|
Bb :--------------------------------------------------------------------|
Gb :------------------------------------------------------13------------|
Db :--11--11--11--11--11--11-------11--11--11--11--11--11---------------|
Ab :--------------------------------------------------------------------|
Eb :----9---9---9---9---9---9--5-9---9---9---9---9---9---9---9----------|

Eb :--------------------------------------------------------------------|
Bb :--------------------------------------------------------------------|
Gb :------------------------------------------------------13\-----------|
Db :--11--11--11--11--11--11-------11--11--11--11--11--11---------------|
Ab :--------------------------------------------------------------------|
Eb :----9---9---9---9---9---9--5-9---9---9---9---9---9---9--------------|

Eb :---------------------|
Bb :---------------------|
Gb :---------------------|   play 4 times
Db :---------------------|
Ab :--12-11----12-11--11-|
Eb :-9------99------9----|

Eb :--------------------------------------|
Bb :--------------------------------------|
Gb :--------------------------------------|
Db :--------------------------------------|    play twice
Ab :---------9-12-9-11---------11-12-9-11-|
Eb :-9-11-12-----------9-11-12------------|

Eb :-----------------|
Bb :-----------------|
Gb :-----------------|
Db :-11---11-11----6-|
Ab :-11---11-11----6-|
Eb :-9----9--9-----4-|

Eb :-----------------|
Bb :-----------------|
Gb :-----------------|    play 3 times
Db :-----------------|
Ab :--12-11--12-11---|
Eb :-9-----9------12-|

Eb :--------------------|
Bb :--------------------|
Gb :--------------------|
Db :--------------------|
Ab :--12-11--12-11-9----|
Eb :-9-----9---------12-|

Eb :-------------------------------------|
Bb :-------------------------------------|   Play twice
Gb :-------------------------------------|
Db :--11-7-6--11-7-6-----11-7-6----7-6---|
Ab :--11-7-6--11-7-6-----11-7-6----7-6---|
Eb :--9--5-4--9--5-4--xx-9--5-4-xx-5-4xx-|

Eb :--------------------------------------|
Bb :--------------------------------------|
Gb :--------------------------------------|
Db :-------11------11-------77-7-76-6-4-2-|    play 3 times
Ab :----11------11------11--77-7-76-6-4-2-|
Eb :--9-------9-------9-----55-5-54-4-2-0-|

Eb :--------------------------------------|
Bb :--------------------------------------|
Gb :--------------------------------------|
Db :-------11------11-------77-7-76-4-2-2-|
Ab :----11------11------11--77-7-76-4-2-2-|
Eb :--9-------9-------9-----55-5-54-2-0-0-|

Eb :------------------|
Bb :------------------|
Gb :------------------|      Play twice
Db :-11-7-6--11-7-6-4-|
Ab :-11-7-6--11-7-6-4-|
Eb :-9--5-4--9--5-4-2-|

Eb :-------------------|
Bb :-------------------|
Gb :----------9-8------|
Db :---11~~~~----10-11-|
Ab :-11----------------|
Eb :-------------------|

no distortion
Eb :---------------------|
Bb :----------9-10----9--|
Gb :------8-9------11----|
Db :--11-----------------|    play 4 times
Ab :---------------------|
Eb :----9--9-9-9--9--9-9-|

turn distortion back on
Eb :-------------------------|
Bb :-------------------------|
Gb :-------------------------|
Db :-11---------11-----------|     Play twice
Ab :-----11-11------12-11-9--|
Eb :---9---9--9---9---9--9-9-|

Eb :-------------------------------------|
Bb :-------------------------------------|
Gb :-------------------------------------|
Db :--11-7-6--11-7-6-----11-7-6----7-6---|
Ab :--11-7-6--11-7-6-----11-7-6----7-6---|
Eb :--9--5-4--9--5-4--xx-9--5-4-xx-5-4xx-|

Eb :--------------------------------------|
Bb :--------------------------------------|
Gb :--------------------------------------|
Db :-------11------11-------77-7-76-6-4-2-|    play 3 times
Ab :----11------11------11--77-7-76-6-4-2-|
Eb :--9-------9-------9-----55-5-54-4-2-0-|

Eb :-------------------------------|
Bb :-------------------------------|
Gb :-------------------------------|
Db :-------11------11-------77-7-7-|
Ab :----11------11------11--77-7-7-|
Eb :--9-------9-------9-----55-5-5-|

Eb :----------------------------|
Bb :----------------------------|
Gb :----------------------------|
Db :----------------------------|  play 8 times
Ab :--11h12p11-9---------9------|
Eb :-9-----------12p11h12-12-11-|

Eb :-----------------------------------------------------------|
Bb :-----------------------------------------------------------|
Gb :------------------------------------------------------13---|
Db :--11--11--11--11--11--11-------11--11--11--11--11--11------|  Play 4 times
Ab :-----------------------------------------------------------|
Eb :----9---9---9---9---9---9--5-9---9---9---9---9---9---9---9-|

Eb :---------------------|
Bb :----------9-10----9--|
Gb :------8-9------11----|
Db :--11-----------------|    play 4 times
Ab :---------------------|
Eb :----9--9-9-9--9--9-9-|

Eb :------------------------------------------------------|
Bb :----------9-10----9-10-9-------------------9-10----9--|
Gb :------8-9------11--------11-9-8-9-8----8-9------11----|
Db :--11--------------------------------11----------------|
Ab :------------------------------------------------------|
Eb :----9--9-9-9--9--9-9--9-9--9-9-9-9-9--9-9-9-9--9--9-9-|

Eb :----------------------|
Bb :----------------------|
Gb :----------------------|
Db :-11----11-11-11----11-|
Ab :-11----11-11-11----11-|
Eb :-9-----9--9--9-----9--|

Eb :----------------------|
Bb :----------------------|
Gb :----14-13-------------|  play 4 times
Db :-11-14-13-11-14-13-10-|
Ab :-11-12-11-11-14-13-10-|
Eb :-9--------9--12-11-8--|

Eb :--------------------------------------------------|
Bb :--------------------------------------------------|
Gb :--------------------13-13-------------------11-11-|
Db :-11-11-11-11-11-11--13-13-11-11-11-11-11-11-11-11-| Play twice
Ab :-11-11-11-11-11-11--11-11-11-11-11-11-11-11-9--9--|
Eb :-9--9--9--9--9--9---------9--9--9--9--9--9--------|

Eb :--------------|
Bb :--------------|
Gb :--------------|
Db :-11-----11-11-|
Ab :-11-----11-11-|
Eb :-9------9--9--|





Comments


Popular Schoolyard Heroes tabs & chords
Boyfriend Bass Tabs
Attack Of The Puppet People Tabs
Bury The Tooth Of The Hydra And A Skeleton Army Will Arise Intro Tabs
Bury The Tooth Of The Hydra And A Skeleton Army Will Arise Intro 1 Tabs
Contra Tabs
Dawn Of The Dead Tabs
Last Man On Earth Intro Tabs
The Plastic Surgery Hall Of Fame Tabs


Song lyrics



↑ Back to top | Tablatures and chords are parodies/interpretations of the original songs. You may use it for private study, scholarship, research or language learning purposes only
© 2014 AZChords.com Contact us | Privacy policy | DMCA | Add/correct tabs | Request tabs | Top 50 tabs