>
 >
The Plastic Surgery Hall Of Fame

The Plastic Surgery Hall Of Fame Guitar Tabs

Schoolyard Heroes - The Plastic Surgery Hall Of Fame chords, tabs, tablatures, lyrics

Guitar lessons | Add/correct | Request | Top 50 tabs Artists:  A B C D E F G H I J K L M N O P Q R S T U V W X Y Z 0-9

The Plastic Surgery Hall Of Fame Guitar Tabs – Schoolyard Heroes

CD, Sheet music, Poster

Do you like The Plastic Surgery Hall Of Fame? Share with your friends now
Tabs
-------------------------------------------------------------------------------
-------------------------------------------------------------------------------

Tuning: D# standard

Note: There's actually one guitarist, but it seems they liked to have 2 guitars in
their songs, even though there's one guitarist. This is why I have a version A and 
a version B in this song.
Don't worry, it's only the intro that has 2 versions. These versions have minor 
differences, but still, they added it
in the song, and I want to have everything in my tab. 

I hope you like this tab. Also, if anyone wants this song as a GP5 file, 
please tell me about it, and I'll make a GP5 tab for it. I don't want to do
extra work for nothing, that's why I want to know if people are interested.
I also tabbed out "Dude, where's my skin" from Schoolyard Heroes, so check that out too!
Note that "Dude, Where's my skin" is a guitar pro 5 file, instead of a text document.


e|-----|
B|-----|
G|-----|
D|-7---|
A|-6---|
E|-5---|

e|---------------------------------------------------------------------------|
B|---------------------------------------------------------------------------|
G|---------------------------------------------------------------------------|
D|---------------------------------------------------------------------------|
A|---------7-7-----6b(6,5)-----------------7-7------6---6---5----------------|
E|-5-5-8-8-----8-8---------8-7-----5-5-8-8-----8-8----7---7---6--------------|
	
					              .   .   .
	Version A		                    
e|---------------------------------------------------------------------------|
B|---------------------------------------------------------------------------|
G|-2-1h2p1h2--4-2h4p2h4--5-4h5p4h5-7\---2-1h2p1h2--4-2h4p2h4-----------------|
D|---------------------------------------------------------------------------|
A|------------------------------------------------------------6b(6,5)--------|
E|--------------------------------------------------------------------8-7-5--|

	Version B (yeah that's right, version B)
e|---------------------------------------------------------------------------|
B|---------------------------------------------------------------------------|
G|-2-1h2p1h2--4-2h4p2h4--5-4h5p4h5-7\---2-1h2p1h2--4-2h4p2h4----5---7-5-4----|
D|------------------------------------------------------------------------6--|
A|---------------------------------------------------------------------------|
E|---------------------------------------------------------------------------|

--------------------------------------------------------------------

e|---------------------------------------------------------------------------|
B|---------------------------------------------------------------------------|
G|--------8--8-------10-10--------8--8---------------------------------------|
D|-10-10-10-10-10-10-12-12-10-10-10-10-10-10--9------------------------------|
A|-12-12-------12-12-------12-12-------12-12-11------------------------------|
E|---------------------------------------------------------------------------| 

--------------------------------------------------------------------- x 4

e|---------------------------------------------------------------------------|
B|-10-10-9-9-10-10-9-9-------------------------------------------------------|
G|---------------------10-10-9-9-10-10-9-9-8-8-9-9-8-8-9-9p8-----------------|
D|-----------------------------------------------------------10-9------------|
A|---------------------------------------------------------------------------|
E|---------------------------------------------------------------------------|

e|---------------------------------------------------------------------------|
B|-10-10-9-9-10-10-9-9-------------------------------------------------------|
G|---------------------10-10-9-9-10-10-9-9-8-8-9-9-8-8-9-9p8-----------------|  
D|-----------------------------------------------------------9---------------|  
A|---------------------------------------------------------------------------|  
E|---------------------------------------------------------------------------|
Be careful here! It's really just
the 9th fret on the D string on the
last part. Not 10 -> 9.


e|---------------------------------------------------------------------------|
B|-10-10-9-9-10-10-9-9-------------------------------------------------------|
G|---------------------10-10-9-9-10-10-9-9-8-8-9-9-8-8-9-9p8-----------------|
D|-----------------------------------------------------------10-9------------|
A|---------------------------------------------------------------------------|
E|---------------------------------------------------------------------------|

e|---------------------------------------------------------------------------|
B|-10-10-9-9-10-10-9-9-------------------------------------------------------|
G|---------------------10-10-9-9-10-10-9-9-----------------------------------|
D|------------------------------------------7-7------------------------------|
A|------------------------------------------6-6------------------------------|
E|------------------------------------------5-5------------------------------|

--------------------------------------------------------------------


e|---------------------------------------------------------------------------|
B|---------------------------------------------------------------------------|
G|---------------------------------------------------------------------------|
D|---------------------------------------------------------------------------|
A|---------7-7-----6b(6,5)-3-2-------------7-7------6---6---5----------------|
E|-5-5-8-8-----8-8-----------------5-5-8-8-----8-8----7---7---6--------------|
	
					              .   .   .		                    |

e|------------------|   ------------------|   -------------------------------|
B|------------------|   ------------------|   -------------------------------|
G|------------------|   ------------------|   -------------------------------|
D|------------------|   ------------------|   -------------------------------|
A|------------------|   ------------------|   -6b(6,5)-----------------------|
E|-1-1-1-1-1-1-1-1--|x4 -3-3-3-3-3-3-3-3--|x2 ---------8-7-------------------|

-------------------------------------------------------------------- x 2

e|---------------------------------------------------------------------------|
B|---------------------------------------------------------------------------|
G|--------8--8------------------8--8-----------------------------------------|
D|-10-10-10-10-10-10--9--10-10-10-10-10-10--9--------------------------------|
A|-12-12-------12-12-11--12-12-------12-12-11--------------------------------|
E|---------------------------------------------------------------------------|

--------------------------------------------------------------------

e|---------------------------------------------------------------------------|
B|---------------------------------------------------------------------------|
G|--------8--8-------10-10--------8--8---------------------------------------|
D|-10-10-10-10-10-10-12-12-10-10-10-10-10-10--9------------------------------|
A|-12-12-------12-12-------12-12-------12-12-11------------------------------|
E|---------------------------------------------------------------------------| 

--------------------------------------------------------------------- x 2

e|-0--|
B|-0--|
G|-0--|
D|----|
A|----|
E|----| x 2

e|---------------------------------------------------------------------------|
B|-10-9-10-9-----------------------------------------------------------------|
G|-----------10-9-10-9-8-9-8-9p8---------------------------------------------|
D|-------------------------------10-9----------------------------------------|
A|---------------------------------------------------------------------------|
E|---------------------------------------------------------------------------|

    . .  . .  . .  . . . . . . .  . .

e|---------------------------------------------------------------------------|
B|-10-9-10-9-----------------------------------------------------------------|
G|-----------10-9-10-9-8-9-8-9p8---------------------------------------------|
D|-------------------------------10------------------------------------------|
A|---------------------------------------------------------------------------|
E|---------------------------------------------------------------------------|

    . .  . .  . .  . . . . . . .  .

e|---------------------------------------------------------------------------|
B|-10-9-10-9-----------------------------------------------------------------|
G|-----------10-9-10-9-8-9-8-9p8---------------------------------------------|
D|-------------------------------10-9---7-7----------------------------------|
A|--------------------------------------7-7----------------------------------|
E|--------------------------------------5-5----------------------------------|

    . .  . .  . .  . . . . . . .  . .

--------------------------------------------------------------------


e|---------------------------------------------------------------------------|
B|---------------------------------------------------------------------------|
G|---------------------------------------------------------------------------|
D|---------------------------------------------------------------------------|
A|---------8-8-----6b(6,5)-----------------7-7------6---6---5----------------|
E|-5-5-8-8-----8-8---------8-7-----5-5-8-8-----8-8----7---7---6--------------|
	
					              .   .   .
			                    
e|------------------|   ------------------|   -------------------------------|
B|------------------|   ------------------|   -------------------------------|
G|------------------|   ------------------|   -------------------------------|
D|------------------|   ------------------|   -------------------------------|
A|------------------|   ------------------|   -6b(6,5)-----------------------|
E|-1-1-1-1-1-1-1-1--|x4 -3-3-3-3-3-3-3-3--|x2 ---------8-7-------------------|

-------------------------------------------------------------------- x 2

e|---------------------------------------------------------------------------|
B|---------------------------------------------------------------------------|
G|---------------------------------------------------------------------------|
D|---------------------------------------------------------------------------|
A|-7-7-1010--7-7-6---7-7-1010--7-7-6-----------------------------------------|
E|-5-5--8-8--5-5-4---5-5--8-8--5-5-4-----------------------------------------|

e|---------------------------------------------------------------------------|
B|---------------------------------------------------------------------------|
G|---------------------------------------------------------------------------|
D|-7-7--7-7--7-7-1010--7-7--7-7--7-7-1010------------------------------------|
A|-6-6--6-6--6-6-9-9---6-6--6-6--6-6-9-9-------------------------------------|
E|-5-5--5-5--5-5-8-8---5-5--5-5--5-5-8-8-------------------------------------|

e|---------------------------------------------------------------------------|
B|---------------------------------------------------------------------------|
G|-2-1h2p1h2--4-2h4p2h4--5-4h5p4h5-7--2-1h2p1h2--4-2h4p2h4-5--7-5-4----------|
D|------------------------------------------------------------------6--------|
A|---------------------------------------------------------------------------|
E|---------------------------------------------------------------------------|x2

e|-----|
B|-----|
G|-----|
D|-7---|
A|-6---|
E|-5---|x3

e|---------------------------------------------------------------------------|
B|-10-10-9-9-10-10-9-9-------------------------------------------------------|
G|---------------------10-10-9-9-10-10-9-9-8-8-9-9-8-8-9-9p8-----------------|
D|-----------------------------------------------------------10-9------------|
A|---------------------------------------------------------------------------|
E|---------------------------------------------------------------------------|

e|---------------------------------------------------------------------------|
B|-10-10-9-9-10-10-9-9-------------------------------------------------------|
G|---------------------10-10-9-9-10-10-9-9-8-8-9-9-8-8-9-9p8-----------------| 
D|-----------------------------------------------------------9---------------|  
A|---------------------------------------------------------------------------| 
E|---------------------------------------------------------------------------|

e|---------------------------------------------------------------------------|
B|-10-9-10-9-----------------------------------------------------------------|
G|-----------10-9-10-9-8-9-8-9p8---------------------------------------------|
D|-------------------------------10-9----------------------------------------|
A|---------------------------------------------------------------------------|
E|---------------------------------------------------------------------------|

    . .  . .  . .  . . . . . . .  . .

e|---------------------------------------------------------------------------|
B|-10-10-9-9-10-10-9-9-------------------------------------------------------|
G|---------------------10-10-9-9-10-10-9-9-8-8-9-9-8-8-9-9p8-----------------| 
D|------------------------------------------------------------7--------------|  
A|------------------------------------------------------------6--------------| 
E|------------------------------------------------------------5--------------|

--------------------------------------------------------------------

e|---------------------------------------------------------------------------|
B|---------------------------------------------------------------------------|
G|---------------------------------------------------------------------------|
D|---------------------------------------------------------------------------|
A|---------7-7-----6b(6,5)-----------------7-7------6---6---5----------------|
E|-5-5-8-8-----8-8---------8-7-----5-5-8-8-----8-8----7---7---6--------------|
	
					              .   .   .
			                    
                                              PART 1          PART 2
e|------------------|   ------------------|   ----------------|--------------|
B|------------------|   ------------------|   ----------------|--------------|
G|------------------|   ------------------|   ----------------|------8-8-----|
D|------------------|   ------------------|   ----------------|-5-6--7-7-----|
A|------------------|   ------------------|   -6b(6,5)--------|-4-5--6-6-----|
E|-1-1-1-1-1-1-1-1--|x4 -3-3-3-3-3-3-3-3--|x2 ---------8-7----|-3-4----------|

-------------------------------------------------------------------- x 2

************************************

| /   slide up
| \   slide down
| h   hammer-on
| p   pull-off
| ~   vibrato
| +   harmonic
| x   Mute note
| b   Bend
| pb  Pre-bend
| br  Bend release
| pbr Pre-bend release
| brb Bend release bend

************************************





Comments


Popular Schoolyard Heroes tabs & chords
Boyfriend Bass Tabs
Attack Of The Puppet People Tabs
Bury The Tooth Of The Hydra And A Skeleton Army Will Arise Intro Tabs
Bury The Tooth Of The Hydra And A Skeleton Army Will Arise Intro 1 Tabs
Contra Tabs
Dawn Of The Dead Tabs
Last Man On Earth Intro Tabs
They Live Tabs


Song lyrics



↑ Back to top | Tablatures and chords are parodies/interpretations of the original songs. You may use it for private study, scholarship, research or language learning purposes only
© 2014 AZChords.com Contact us | Privacy policy | DMCA | Add/correct tabs | Request tabs | Top 50 tabs