>
 >
Dawn Of The Dead

Dawn Of The Dead Guitar Tabs

Schoolyard Heroes - Dawn Of The Dead chords, tabs, tablatures, lyrics

Guitar lessons | Add/correct | Request | Top 50 tabs Artists:  A B C D E F G H I J K L M N O P Q R S T U V W X Y Z 0-9

Dawn Of The Dead Guitar Tabs – Schoolyard Heroes

CD, Sheet music, Poster

Do you like Dawn Of The Dead? Share with your friends now
Tabs
-----------------------------------------------------------------------------
-----------------------------------------------------------------------------

This is a really great song. Extremely easy to play. I noticed there is only one
LOT
distortion. Anyway. Hope you enjoy.

Tuning: Standard

Intro/Verse
e|-------------------------------------------------------------------------|
B|-------------------------------------------------------------------------|
G|-------------------------------------------------------------------------|
D|-5-5-4------------5-5-4------------5-5-2------------5-5-2----------------|
A|-5-5-4------------5-5-4------------5-5-2------------5-5-2----------------|
E|-3-3-2-2222222222-3-3-2-2222222222-3-3-0-0000000000-3-3-0-0000000000-----|
         ..........       ..........       ..........       ..........

e|-------------------------------------------------------------------------|
B|-------------------------------------------------------------------------|
G|-------------------------------------------------------------------------|
D|-5-5-4-4444444444-5-5-4-4444444444-5-5-2-2222222222-5-5-2-2222222222-----|
A|-5-5-4-4444444444-5-5-4-4444444444-5-5-2-2222222222-5-5-2-2222222222-----|
E|-3-3-2-2222222222-3-3-2-2222222222-3-3-0-0000000000-3-3-0-0000000000-----|

e|-------------------------------------------------------------------------|
B|-------------------------------------------------------------------------|
G|-------------------------------------------------------------------------|
D|-5-5-4------------5-5-4------------5-5-2------------5-5-2----------------|
A|-5-5-4------------5-5-4------------5-5-2------------5-5-2----------------|
E|-3-3-2------------3-3-2------------3-3-0------------3-3-0----------------|

e|-------------------------------------------------------------------------|
B|-------------------------------------------------------------------------|
G|-------------------------------------------------------------------------|
D|-5-5-4-4444444444-5-5-4-4444444444-5-5-2-2222222222-5-5-2-2222222--------|
A|-5-5-4-4444444444-5-5-4-4444444444-5-5-2-2222222222-5-5-2-2222222--------|
E|-3-3-2-2222222222-3-3-2-2222222222-3-3-0-0000000000-3-3-0-0000000--------|

Chorus
e|------------------------------------------------------------------------|
B|------------------------------------------------------------------------|
G|----2-2-2-2-4-4-4-4-----------------2-2-2-2-4-4-4-4---------------------|
D|----2-2-2-2-4-4-4-4-2-2-2-2-2-2-2-2-2-2-2-2-4-4-4-4-2-2-2-2-2-2-2-2-----|
A|----0-0-0-0-2-2-2-2-2-2-2-2-2-2-2-2-0-0-0-0-2-2-2-2-2-2-2-2-2-2-2-2-----|
E|--------------------0-0-0-0-0-0-0-0-----------------0-0-0-0-0-0-0-0-----|

e|------------------------------------------------------------------------|
B|------------------------------------------------------------------------|
G|----2-2-2-2-4-4-4-4-----------------2-2-2-2-4-4-4-4---------------------|
D|----2-2-2-2-4-4-4-4-2-2-2-2-2-2-2-2-2-2-2-2-4-4-4-4-2-------------------|
A|----0-0-0-0-2-2-2-2-2-2-2-2-2-2-2-2-0-0-0-0-2-2-2-2-2-------------------|
E|--------------------0-0-0-0-0-0-0-0-----------------0-------------------|

The bridge starts with the bass and then the guitar comes in later. The first part of
bridge is played with a cleaner tone and its more in the background. It's kind of twangy,
I play it with a lot of treble and pick towards the bridge of the guitar. After two 
you play the same thing but with the distorted tone again. Anyway.

Bridge
e|-------------------------------------------------------------------------|
B|-------------------------------------------------------------------------|
G|-------------------------------------------------------------------------|
D|-------------------------------------------------------------------------|
A|-------------------------------------------------------------------------|
E|-0-0-2-0-3-0-0h5h7-0-0-2-0-3-0-0h5h7-0-0-2-0-3-0-0h5h7-5-5-5-5-5-5-5-5---|

e|-------------------------------------------------------------------------|
B|-------------------------------------------------------------------------|
G|-------------------------------------------------------------------------|
D|-------------------------------------------------------------------------|
A|-------------------------------------------------------------------------|
E|-0-0-2-0-3-0-0h5h7-0-0-2-0-3-0-0h5h7-0-0-2-0-3-0-0h5h7-5-5-5-5-5-5-5-5---|

(same thing but it goes back to the distortion)
e|-------------------------------------------------------------------------|
B|-------------------------------------------------------------------------|
G|-------------------------------------------------------------------------|
D|-------------------------------------------------------------------------|
A|-------------------------------------------------------------------------|
E|-0-0-2-0-3-0-0h5h7-0-0-2-0-3-0-0h5h7-0-0-2-0-3-0-0h5h7-5-5-5-5-5-5-5-5---|

e|-------------------------------------------------------------------------|
B|-------------------------------------------------------------------------|
G|-------------------------------------------------------------------------|
D|-----------------------------------------------------------------------2-|
A|-----------------------------------------------------------------------2-|
E|-0-0-2-0-3-0-0h5h7-0-0-2-0-3-0-0h5h7-0-0-2-0-3-0-0h5h7-5-5-5-5-5-5-5-5-0-|

Verse
e|-------------------------------------------------------------------------|
B|-------------------------------------------------------------------------|
G|-------------------------------------------------------------------------|
D|-5-5-4-4444444444-5-5-4-4444444444-5-5-2-2222222222-5-5-2-2222222222-----|
A|-5-5-4-4444444444-5-5-4-4444444444-5-5-2-2222222222-5-5-2-2222222222-----|
E|-3-3-2-2222222222-3-3-2-2222222222-3-3-0-0000000000-3-3-0-0000000000-----|

e|-------------------------------------------------------------------------|
B|-------------------------------------------------------------------------|
G|-------------------------------------------------------------------------|
D|-5-5-4------------5-5-4------------5-5-2------------5-5-2----------------|
A|-5-5-4------------5-5-4------------5-5-2------------5-5-2----------------|
E|-3-3-2------------3-3-2------------3-3-0------------3-3-0----------------|

e|-------------------------------------------------------------------------|
B|-------------------------------------------------------------------------|
G|-------------------------------------------------------------------------|
D|-5-5-4-4444444444-5-5-4-4444444444-5-5-2-2222222222-5-5-2-2222222--------|
A|-5-5-4-4444444444-5-5-4-4444444444-5-5-2-2222222222-5-5-2-2222222--------|
E|-3-3-2-2222222222-3-3-2-2222222222-3-3-0-0000000000-3-3-0-0000000--------|

Chorus
e|------------------------------------------------------------------------|
B|------------------------------------------------------------------------|
G|----2-2-2-2-4-4-4-4-----------------2-2-2-2-4-4-4-4---------------------|
D|----2-2-2-2-4-4-4-4-2-2-2-2-2-2-2-2-2-2-2-2-4-4-4-4-2-2-2-2-2-2-2-2-----|
A|----0-0-0-0-2-2-2-2-2-2-2-2-2-2-2-2-0-0-0-0-2-2-2-2-2-2-2-2-2-2-2-2-----|
E|--------------------0-0-0-0-0-0-0-0-----------------0-0-0-0-0-0-0-0-----|

e|------------------------------------------------------------------------|
B|------------------------------------------------------------------------|
G|----2-2-2-2-4-4-4-4-----------------2-2-2-2-4-4-4-4---------------------|
D|----2-2-2-2-4-4-4-4-2-2-2-2-2-2-2-2-2-2-2-2-4-4-4-4-2-------------------|
A|----0-0-0-0-2-2-2-2-2-2-2-2-2-2-2-2-0-0-0-0-2-2-2-2-2-------------------|
E|--------------------0-0-0-0-0-0-0-0-----------------0-------------------|

Bridge
e|-------------------------------------------------------------------------|
B|-------------------------------------------------------------------------|
G|-------------------------------------------------------------------------|
D|-------------------------------------------------------------------------|
A|-------------------------------------------------------------------------|
E|-0-0-2-0-3-0-0h5h7-0-0-2-0-3-0-0h5h7-0-0-2-0-3-0-0h5h7-5-5-5-5-5-5-5-5---|

You continue playing the bridge several times and then the song ends with this.

e|---|
B|---|
G|---|
D|-2-|
A|-2-|
E|-0-|

| /  slide up
| \  slide down
| h  hammer-on
| p  pull-off
| ~  vibrato
| +  harmonic
| x  Mute note
| .  palm mute
=============================================================================





Comments


Popular Schoolyard Heroes tabs & chords
Boyfriend Bass Tabs
Attack Of The Puppet People Tabs
Bury The Tooth Of The Hydra And A Skeleton Army Will Arise Intro Tabs
Bury The Tooth Of The Hydra And A Skeleton Army Will Arise Intro 1 Tabs
Contra Tabs
Last Man On Earth Intro Tabs
The Plastic Surgery Hall Of Fame Tabs
They Live Tabs


Song lyrics



↑ Back to top | Tablatures and chords are parodies/interpretations of the original songs. You may use it for private study, scholarship, research or language learning purposes only
© 2014 AZChords.com Contact us | Privacy policy | DMCA | Add/correct tabs | Request tabs | Top 50 tabs