» » »

Schoolyard Heroes, Attack Of The Puppet People Tabs (ver.1)

Artists:  A B C D E F G H I J K L M N O P Q R S T U V W X Y Z # 

Attack Of The Puppet People Tabs (ver.1)

Schoolyard Heroes Tabs
 Rating:
4.2/5 (5 votes)
Attack Of The Puppet People lessons Tabs too difficult? Try these video lessons and learn fast
                -----------------------------------------------------------------------------
-----------------------------------------------------------------------------

I know this tab is sort of inaccurate. However, I think something is better than nothing 
it is fairly close to the actual song anyway. The intro is almost definitely right. 
this is a great song, hope the tab helps.

Tuning: Standard

Intro
e|-----------------------------------|
B|-----------------------------------|
G|-----------------------------------|
D|-------7-------8-------5-------3---|
A|-55555---55555---55555---55555-----|
E|-----------------------------------|x5

Verse
e|-----------------------------------|
B|-7-------9-------10------5---------|
G|-7-------9-------10------5---------|
D|-----------------------------------|
A|-----------------------------------|
E|-----------------------------------|x6

Bridge
e|-------------------------------------------|
B|-7-7-7-7-7-7-7-7---------------------------|
G|-7-7-7-7-7-7-7-7---------------------------|
D|-7-7-7-7-7-7-7-7-13-12-15-12-13-12-15-12---|
A|-5-5-5-5-5-5-5-5---------------------------|
E|-------------------------------------------|x3
                   .  .  .  .  .  .  .  .

I'm not entirely sure how to play the lick at the end of this part, but just do some 
of like this.
e|-------------------------------------------|
B|-7-7-7-7-7-7-7-7--7---14p12----------------|
G|-7-7-7-7-7-7-7-7--7--------14p12-----------|
D|-7-7-7-7-7-7-7-7--7-------------14p12------|
A|-5-5-5-5-5-5-5-5--5------------------13----|
E|-------------------------------------------|

Chorus
e|---------------------------------------------------------------------|
B|---------------------------------------------------------------------|
G|---------------------------------------------------------------------|
D|-2-2-5-4-2-2-5-4-2-2-5-4-2-2-5-4-------------------------------------|
A|-2-2-5-4-2-2-5-4-2-2-5-4-2-2-5-4-------------------------------------|
E|-0-0-3-2-0-0-3-2-0-0-3-2-0-0-3-2-5555555555555555-6666666666666666---|x2

Verse
e|-----------------------------------|
B|-7-------9-------10------5---------|
G|-7-------9-------10------5---------|
D|-----------------------------------|
A|-----------------------------------|
E|-----------------------------------|x6

Bridge
e|-------------------------------------------|
B|-7-7-7-7-7-7-7-7---------------------------|
G|-7-7-7-7-7-7-7-7---------------------------|
D|-7-7-7-7-7-7-7-7-13-12-15-12-13-12-15-12---|
A|-5-5-5-5-5-5-5-5---------------------------|
E|-------------------------------------------|x3
                    .  .  .  .  .  .  .  .

e|-------------------------------------------|
B|-7-7-7-7-7-7-7-7-----14p12-----------------|
G|-7-7-7-7-7-7-7-7----------14p12------------|
D|-7-7-7-7-7-7-7-7---------------14p12-------|
A|-5-5-5-5-5-5-5-5--------------------13-----|
E|-------------------------------------------|

Chorus
e|---------------------------------------------------------------------|
B|---------------------------------------------------------------------|
G|---------------------------------------------------------------------|
D|-2-2-5-4-2-2-5-4-2-2-5-4-2-2-5-4-------------------------------------|
A|-2-2-5-4-2-2-5-4-2-2-5-4-2-2-5-4-------------------------------------|
E|-0-0-3-2-0-0-3-2-0-0-3-2-0-0-3-2-5555555555555555-6666666666666666---|x2

Interlude (I dont know what else to call it)
e|------------------------------------------------------------|
B|------------------------------------------------------------|
G|------------12------------14-------------15------------10---|
D|-1212121212----1212121212----1212121212-----1212121212------|
A|------------------------------------------------------------|
E|------------------------------------------------------------|x5

e|-------------------------------|
B|-------------------------------|
G|------------12-12-12-12-12-----|
D|-1212121212----12-12-12-12-----|
A|-------------------------------|
E|-------------------------------|

Chorus
e|---------------------------------------------------------------------|
B|---------------------------------------------------------------------|
G|---------------------------------------------------------------------|
D|-2-2-5-4-2-2-5-4-2-2-5-4-2-2-5-4-------------------------------------|
A|-2-2-5-4-2-2-5-4-2-2-5-4-2-2-5-4-------------------------------------|
E|-0-0-3-2-0-0-3-2-0-0-3-2-0-0-3-2-5555555555555555-6666666666666666---|x2

Interlude (I dont know what else to call it)
e|------------------------------------------------------------|
B|------------------------------------------------------------|
G|------------12------------14-------------15------------10---|
D|-1212121212----1212121212----1212121212-----1212121212------|
A|------------------------------------------------------------|
E|------------------------------------------------------------|x5

e|------------------------------------------|
B|------------------------------------------|
G|------------12-12-12-12-12----------------|
D|-1212121212----12-12-12-12--5-5-5-5-5-5---|
A|----------------------------5-5-5-5-5-5---|
E|----------------------------3-3-3-3-3-3---|

| .  palm mute
| /  slide up
| \  slide down
| h  hammer-on
| p  pull-off
| ~  vibrato
| +  harmonic
| x  Mute note
=============================================================================
            
Submit corrections

comments powered by Disqus
↑ Back to top | Schoolyard Heroes Tabs for Attack Of The Puppet People. Lyrics for acoustic guitar and electric guitar. Tablatures and chords are parodies/interpretations of the original songs. You may use it for private study, scholarship, research or language learning purposes only