» » »

Humbleness Tabs (ver.2)

Artists:  A B C D E F G H I J K L M N O P Q R S T U V W X Y Z # 

Humbleness Tabs (ver.2)

Schenker Michael
Rating:
0/5 (0 votes)

Hard to play? Try these video lessons and learn fast.
                Humbleness by Michael Schenker
off the album, Thank You


This song is from the Thank You CD put out by Michael 
through his fan club. If you saw the recent UFO tour, 
he was selling them at the shows. I highly recommend 
picking it up. Awesome acoustics from the master.

lead part
------------------------------------------
------------------------------------------
------------------------------------------
--------------7--5---3h5p3---2---3---2----
-8--7--8--5-------------------------------
------------------------------------------

------------------------------------------
------------------------------------------
------------------------------------------
--------------7--5---3h5p3---2---3---2----
-5--7--8--5-------------------------------
------------------------------------------

------------------------------------------------------
------------------------------------------------------
------------------------------------------------------
-7--5-3h5p3--2--3-------------------------------------
--------------------5---5/8---7--5h7p5--3---5/7---5---
------------------------------------------------------

-----------------------------------------
-----------------------------------------
-----------------------------------------
-----------7----7--5--3h5p3--2---3---2---
-5--7--8---------------------------------
-----------------------------------------

-----------------------------------------
-----------------------------------------
-----------------------------------------
-----------7----7--5--3h5p3--2---3---2---
-5--7--8---------------------------------
-----------------------------------------


------------------------------------------------------
------------------------------------------------------
------------------------------------------------------
-7--5-3h5p3--2--3-------------------------------------
--------------------5---5/8---7--5h7p5--3---5/7---5---
------------------------------------------------------

------------------------------------------------------
------------------------------------------------------
------------------------------------------------------
-7--5-3h5p3--2--3---------------------------------7---
--------------------5---5/8---7--5h7p5--3---/7-------
------------------------------------------------------

-----------------------------------------------------------
-----------------------------------------------------------
-----------------------------------------------------------
-7--8--7--7--5--5--------5b--7--7---8--7--7---5---5--------
-------------------8--8-------------------------------8--8-
-----------------------------------------------------------

------------------------------
------------------------------
------------------------------
----------5--7----------------
-8--7--8----------------------
------------------------------

-----------------------------------------
-----------------------------------------
-----------------------------------------
-----------7----7--5--3h5p3--2---3---2---
-5--7--8---------------------------------
-----------------------------------------

---------------------------------------------
---------------------------------------------
---------------------------------------------
--------------7----7--5--3h5p3--2---3---2----
-3b--5--7--8---------------------------------
---------------------------------------------

------------------------------------------------------
------------------------------------------------------
------------------------------------------------------
-7--5-3h5p3--2--3-------------------------------------
--------------------5---5/8---7--5h7p5--3---5/7---5---
------------------------------------------------------

------------------------------------------------------
------------------------------------------------------
------------------------------------------------------
-7--5-3h5p3--2--3-------------------------------------
--------------------5---5/8---7--5h7p5--3---5/7---5---
------------------------------------------------------

repeat and fade out

part of acoustic accompaniement underneath lead

------1-----0--1----------1----0--1-----
-----------------3------------------3---
---2-----2---------2----2---2-----------
-0--------------------0-----------------
----------------------------------------
----------------------------------------

-----------------------------------------
---------1--------0------------1---------
-------2---2----0---0-----0------0---0---
-0-2-3------------------2---2------2-----
--------------2-------3------------------
-----------------------------------------

------1-----0--1----------1----0--1-----
-----------------3------------------3---
---2-----2---------2----2---2-----------
-0--------------------0-----------------
----------------------------------------
----------------------------------------

-----------------------------------------
---------1--------0------------1---------
-------2---2----0---0-----0------0---0---
-0-2-3------------------2---2------2-----
--------------2-------3------------------
-----------------------------------------

------------------------------
------------------------------
------------------------------
------------------------------
------------------------------
------------------------------
            
Hard to play? Try these video lessons and learn fast. | Correct




comments powered by Disqus
↑ Back to top | Tablatures and chords are parodies/interpretations of the original songs. You may use it for private study, scholarship, research or language learning purposes only