» » »

Schenker Michael, Captain Nemo Tabs (ver.2)

Artists:  A B C D E F G H I J K L M N O P Q R S T U V W X Y Z # 

Captain Nemo Tabs (ver.2)

Schenker Michael Tabs
 Rating:
4/5 (4 votes)
Captain Nemo lessons Tabs too difficult? Try these video lessons and learn fast
                Captain Nemo (intro) -- Michael Schenker
                    ========================================
                    Off MSG album 'Built to Destroy' (1983)

Notation: H - hammer on
          P - pull off
          vvvvvv - vibrato

After a couple of chords and slides it goes into:


     H    P
-|----------------------------------------------------------|
-|----------------------------------------------------------|
-|-----------------------12----0--11------0--9------0--7----|
-|------------------------------------12--------11--------9-|
-|--0--10--0------0--10-----12------------------------------|
-|------------12--------------------------------------------|


     H    P
-|----------------------------------------------------------|
-|----------------------------------------------------------|
-|-----------------------12----0--11------0--9vvvvvv--------|
-|------------------------------------12--------------------|
-|--0--10--0------0--10-----12------------------------------|
-|------------12--------------------------------------------|


      H   P
-|----------------------------------------------------------|
-|----------------------------------------------------------|
-|-----------------------12----0--11------0--9------0--7----|
-|------------------------------------12--------11--------9-|
-|--0--10--0------0--10-----12------------------------------|
-|------------12--------------------------------------------|


     H    P
-|----------------------------------------------------------|
-|----------------------------------------------------------|
-|-------------------12------0--11--0--9--0--7--0--9--0-----|
-|----------------------------------------------------------|
-|--0--10--0--0--10------12---------------------------------|
-|----------------------------------------------------------|


      H   P
-|----------------------------------------------------------|
-|----------------------------------------------------------|
-|-----------------------12----0--11------0--9------0--7----|
-|------------------------------------12--------11--------9-|
-|--0--10--0------0--10-----12------------------------------|
-|------------12--------------------------------------------|


Then it carries on with minor differences for a while, before going on to
the rest of the song !


                                         Dave.

                       


                 __                  __          Dave Wood.
                 \ \                / /                 
                   \ \            / /            Mathematics Institute,
                     \ \        / /
                     ||\ \    / /||              University of Warwick.
                     ||  \ \/ /  ||
                     ||    \/    ||
                 | --||---|  | --||---|
                 |  ------\  || /----\
                  \------ |  || |---- | 
                     ||  ||  ||  ||  ||
                     ||  ||  ||  ||  ||
                  /--||-- |  | --||-- |
                  |--||---/   \--||---/
                     ||          ||
                      
            
Submit corrections

comments powered by Disqus
↑ Back to top | Schenker Michael Tabs for Captain Nemo. Lyrics for acoustic guitar and electric guitar. Tablatures and chords are parodies/interpretations of the original songs. You may use it for private study, scholarship, research or language learning purposes only