» » »

World As We Know It Tabs (ver.1)

Artists:  A B C D E F G H I J K L M N O P Q R S T U V W X Y Z # 

World As We Know It Tabs (ver.1)

Scary Kids Scaring Kids
Rating:
0/5 (0 votes)

Hard to play? Try these video lessons and learn fast.
                (Intro)

Tuning: Drop-D
e|----------------------------------------------------------------|G
b|-----10-10--8-8--10-10--8h10------10-10--8-8--10-8h10p8---------|U
g|-----10-10--9-9--10-10--9h10------10-10--9-9--10--------10-9----|I
d|----------------------------------------------------------------|T
a|-0-0--------------------------0-0-------------------------------|A
d|-0-0--------------------------0-0-------------------------------|R

e|-----------------------------------------|G
b|-10-10-8-8---------------------------8-8-|U
g|-----------10-10-9-9-10-10-9-9-----------|I
d|-------------------------------10-10-----|T 
a|-----------------------------------------|A 
d|-----------------------------------------|R x2

easy intro, fun to play. i'll try and figure out the rest of the song another time.
            
Hard to play? Try these video lessons and learn fast. | Correct




comments powered by Disqus
↑ Back to top | Tablatures and chords are parodies/interpretations of the original songs. You may use it for private study, scholarship, research or language learning purposes only