>
 >
What A Wonderful World

What A Wonderful World Guitar Tabs

Scary Kids Scaring Kids - What A Wonderful World chords, tabs, tablatures, lyrics

Guitar lessons | Add/correct | Request | Top 50 tabs Artists:  A B C D E F G H I J K L M N O P Q R S T U V W X Y Z 0-9

What A Wonderful World Guitar Tabs – Scary Kids Scaring Kids

CD, Sheet music, Poster

Do you like What A Wonderful World? Share with your friends now
Tabs
Tuning: Standard

h = hammer on
p = pull off
^ = bend
r = release
t = tap
~ = let it ring
/ = slide up
\ = slide down
. = palm mute
+ = harmonic
v = vibrato
()= optional 



Intro: No guitars

I see trees of green
Red roses too
I see them bloom
For me and you
And I think to myself
What a wonderful world



Interlude: Guitar I

e|--8-----------|--------------|
B|-----6--5--6--|--5-----5--6--|
G|--------------|-----5--------|
D|--------------|--------------|x2
A|--------------|--------------|
E|--------------|--------------|



Verse: Guitar I

I see skies of blue...

e|--8-----------|--12----------|--13----------|--12----------|
B|-----6--5--6--|--------------|--------------|----10----10--|
G|--------------|----12-10-12--|----14-12-14--|-------10-----|
D|--------------|--------------|--------------|--------------|
A|--------------|--------------|--------------|--------------|
E|--------------|--------------|--------------|--------------|

Bright blessed days...

e|--10----------|--8-----------|--12----------|--13----------|
B|-----8----8---|-----6--5--6--|----10----10--|----10----10--|
G|-------10-----|--------------|-------12-----|-------12-----|
D|--------------|--------------|--------------|--------------|
A|--------------|--------------|--------------|--------------|
E|--------------|--------------|--------------|--------------|

And I think to myself...

e|--------------|--------------|
B|--------------|--8~~~--------|
G|-10~~~--------|--------------|
D|--------------|--------------|
A|--------------|--------------|
E|--------------|--------------|



Interlude: Guitar I

e|--8-----------|--------------|
B|-----6--5--6--|--5-----5--6--|
G|--------------|-----5--------|
D|--------------|--------------|x2
A|--------------|--------------|
E|--------------|--------------|

Interlude: Guitar II

e|--------------|--------------|--13----------|--------------|
B|--------------|--------------|--13----13----|--------------|
G|--------------|----12-14h15--|-----15---15--|--14--12--10--|
D|--------------|--------------|--------------|--------------|
A|--------------|--------------|--------------|--------------|
E|--------------|--------------|--------------|--------------|


Bridge: Guitar I

The colors of the rainbow...

e|--13----------|--13----------|--12----------|--12----------|
B|--------------|--------------|----10----10--|----10----10--|
G|----14-12-14--|----14-12-14--|-------10-----|-------10-----|
D|--------------|--------------|--------------|--------------|x2
A|--------------|--------------|--------------|--------------|
E|--------------|--------------|--------------|--------------|

I see friends shaking hands...

e|--13-15-------|--10--8-------|--15----------|--------------|
B|----------13--|--------10----|-------13-15--|-10-11--8--10-|
G|--------15----|----------10--|----15--------|--------------|
D|--------------|--------------|--------------|--------------|
A|--------------|--------------|--------------|--------------|
E|--------------|--------------|--------------|--------------|

They really say...

e|--15----------|--10--8-------|--8-----------|--------------|
B|-------13-15--|-------11-10--|---11-10------|--8-10--8-10--|
G|----15--------|--------------|----------12--|--------------|
D|--------------|--------------|--------------|--------------|
A|--------------|--------------|--------------|--------------|
E|--------------|--------------|--------------|--------------|

Bridge: Guitar II

I see friends shaking hands...

e|--------------|--------------|--------------|--------------|
B|--6~~---------|--5~~---------|--6~~---------|--5~~---8-6---|
G|--7~~---------|--5~~---------|--7~~---------|--5~~---------|
D|--7~~---------|--5~~---------|--7~~---------|--5~~---------|
A|--5~~---------|--3~~---------|--5~~---------|--3~~---------|
E|--------------|--------------|--------------|--------------|

They really say...

e|--------------|--------------|--------------|--------------|
B|--------------|--11-10-------|--------------|--------------|
G|--------------|-------12-10--|--------------|--------------|
D|--------------|--------------|--------------|--------------|
A|--------------|--------------|--------------|--------------|
E|--------------|--------------|--------------|--------------|


Verse: Guitar I

I see babies crying...

e|--8-----------|--12----------|--13----------|--12----------|
B|-----6--5--6--|--------------|--------------|----10----10--|
G|--------------|----12-10-12--|----14-12-14--|-------10-----|
D|--------------|--------------|--------------|--------------|
A|--------------|--------------|--------------|--------------|
E|--------------|--------------|--------------|--------------|

They'll learn much more...

e|--10----------|--8-----------|--12----------|--13----------|
B|-----8----8---|-----6--5--6--|----10----10--|----10----10--|
G|-------10-----|--------------|-------12-----|-------12-----|
D|--------------|--------------|--------------|--------------|
A|--------------|--------------|--------------|--------------|
E|--------------|--------------|--------------|--------------|

And I think to myself...

e|--------------|--------------|
B|--------------|--8~~~--------|
G|-10~~~--------|--------------|
D|--------------|--------------|
A|--------------|--------------|
E|--------------|--------------|


Outro: Guitar I

e|--8-----------|--------------|
B|-----6--5--6--|--5-----5--6--|
G|--------------|-----5--------|
D|--------------|--------------|x2
A|--------------|--------------|
E|--------------|--------------|

Yes I think to myself...

e|--13~---------|-----/15--12--|
B|--------------|--------------|
G|--------------|--10----------|
D|--------------|--------------|
A|--------------|--------------|
E|--------------|--------------|

What a wonderful world





Comments


Popular Scary Kids Scaring Kids tabs & chords
My Darkest Hour Bass Tabs
My Darkest Hour 1 Bass Tabs
Snake Devil Bass Tabs
Star Crossed 2 Bass Tabs
Blood Runs Forever Tabs
Empty Glasses Tabs
Empty Glasses 2 Tabs
Just A Taste Tabs
The Only Medicine Tabs
Watch Me Bleed Acoustic Intro Tabs


Song lyrics



↑ Back to top | Tablatures and chords are parodies/interpretations of the original songs. You may use it for private study, scholarship, research or language learning purposes only
© 2014 AZChords.com Contact us | Privacy policy | DMCA | Add/correct tabs | Request tabs | Top 50 tabs