>
 >
Watch Me Bleed Acoustic Intro

Watch Me Bleed Acoustic Intro Guitar Tabs

Scary Kids Scaring Kids - Watch Me Bleed Acoustic Intro chords, tabs, tablatures, lyrics

Guitar lessons | Add/correct | Request | Top 50 tabs Artists:  A B C D E F G H I J K L M N O P Q R S T U V W X Y Z 0-9

Watch Me Bleed Acoustic Intro Guitar Tabs – Scary Kids Scaring Kids

CD, Sheet music, Poster

Do you like Watch Me Bleed Acoustic Intro? Share with your friends now
Tabs
                     Watch Me Bleed Acoustic - Scary Kids Scaring Kids

this was originally a Guitar Pro file, converted it to text form.
Any questions send me an email.
I will warn you, it is a pretty rough tab.
Transcribed it from a piano tab.
Good luck

     E  E  E  E  E  E  E  E      E  E  E  E  E  E  E  E   
E||--------------------------|--11--------6--------6-----|
B||-----------------8--------|------------------------8--|
G||-----0--5--7--8-----7--8--|------7--8-----7--8--------|
D||--------------------------|---------------------------|
A||--3-----------------------|---------------------------|
E||--------------------------|---------------------------|
 
 
  E  Q    Q    Q    E     H        Q    Q       E  E  E  E  E  E  E  E   
|--8-------6----3-------|----------------1----|--3-----------------------|
|--------------------4--|--L--------L---------|-----------------8--------|
|-----------------------|---------------------|-----0--5--7--8-----7--8--|
|-----------------------|---------------------|--------------------------|
|-----6-----------------|---------------------|--3-----------------------|
|-----------------------|---------------------|--------------------------|
 
 
   E  E  E  E  E  E  E  E     E  E  Q     Q    Q       Q    Q.     Q    E   
|--11--------6--------6-----|--8-----6----11---------|-------------------6--|
|------------------------8--|-------------------8----|--L----6------L-------|
|------7--8-----7--8--------|------------------------|----------------------|
|---------------------------|------------------------|----------------------|
|---------------------------|-----6------------------|----------------------|
|---------------------------|------------------------|----------------------|
 
 
  E  E  E  E  E  E  E  E      E  E  E  E  E  E  E  E     E  Q    E  Q    Q     
|--6-----3--------3--------|--11--------6--------6-----|--8-------6--3---------|
|-----------3--4-----3--4--|---------------------6--8--|------------------4----|
|-----0--5-----------------|------7--8-----7--8--------|-----------------------|
|--------------------------|---------------------------|-----------------------|
|--------------------------|---------------------------|-----6-----------------|
|--------------------------|---------------------------|-----------------------|
 
 
  H        Q    Q       E  E  E  Q    Q       W                 
|----------------1----|--3--------1----6----|-------------------|
|--L--------L---------|---------------------|--4----------------|
|---------------------|---------------------|-------------------|
|---------------------|---------------------|--6----------------|
|---------------------|--3--3---------------|-------------------|
|---------------------|--1-----1------------|--6----------------|
 
 
  E  E  E  E  E  E  E  E     E  E   E  E   E   E   Q     
|--------------------6-----|--3-----11--8--10------18----|
|--------4-----3--------6--|-----4-------------11--------|
|-----------5-----3--------|-----------------------------|
|-----5--------------------|-----------------------------|
|--3-----------------------|-----------------------------|
|--------------------------|-----------------------------|
 
 
   E   E  E   E  E  E  E  E     E  E   E  E   E   E   Q     
|--18-------------------6-----|--3-----11--8--10------18----|
|--------------------------6--|-----4-------------11--------|
|----------8------7-----------|-----------------------------|
|-------------10-----8--------|-----------------------------|
|-----------------------------|-----------------------------|
|------11---------------------|-----------------------------|
 
 
  E  E  E  E  E  E  E  E     E  E   E  E   E   E   Q     
|--------------------6-----|--3-----11--8--10------18----|
|-----------------------6--|-----4-------------11--------|
|-----0--8--5--7-----------|-----------------------------|
|-----------------8--------|-----------------------------|
|--------------------------|-----------------------------|
|--8-----------------------|-----------------------------|
 
 
   E   E  E   E  E  E  E  E     E  E   E  E   E   E   Q     
|--18-------------------6-----|--3-----11--8--10------18----|
|--------------------------6--|-----4-------------11--------|
|----------8------7-----------|-----------------------------|
|-------------10-----8--------|-----------------------------|
|-----------------------------|-----------------------------|
|------11---------------------|-----------------------------|
 
 
  E  E  E  E  E  E  E  E     E  E   E  E   E   E   Q     
|--------------------6-----|--3-----11--8--10------18----|
|-----------------------6--|-----4-------------11--------|
|-----0--8--5--7-----------|-----------------------------|
|-----------------8--------|-----------------------------|
|--------------------------|-----------------------------|
|--8-----------------------|-----------------------------|
 
 
   E   E  E   E  E  E  E  E     E  E   E  E   E   E   Q     
|--18-------------------6-----|--3-----11--8--10------18----|
|--------------------------6--|-----4-------------11--------|
|----------8------7-----------|-----------------------------|
|-------------10-----8--------|-----------------------------|
|-----------------------------|-----------------------------|
|------11---------------------|-----------------------------|
 
 
  E  E  E  E  E  E  E  E     E  E   E  E   E   E   Q     
|--------------------6-----|--3-----11--8--10------18----|
|-----------------------6--|-----4-------------11--------|
|-----0--8--5--7-----------|-----------------------------|
|-----------------8--------|-----------------------------|
|--------------------------|-----------------------------|
|--8-----------------------|-----------------------------|
 
 
  E  E  E  E  E  E  E  E     E  E  Q    E  Q       E  E  E  E  E  E  E  E   
|--------------------------|--3----------1--6----|-----------------------1--|
|--------------6--4--3-----|--------1------------|-----------------3--4-----|
|-----------5-----------3--|-----0---------------|-----------3--5-----------|
|--------8-----------------|---------------------|--------6-----------------|
|-----8--------------------|--3------------------|-----6--------------------|
|--6-----------------------|---------------------|--4-----------------------|
 
 
  E  E  E  E  E  E  E  E     E  E  E  E  E  E  E  E     E  E  E  E  Q    E  E   
|--------------1-----------|-----------------------1--|--3--------1-------------|
|-----------1-----4--3-----|--------------1--3--4-----|--------1-----4----3--4--|
|--------3--------------3--|--------1--3--------------|-----0-------------------|
|-----3--------------------|-----1--------------------|-------------------------|
|--1-----------------------|--------------------------|--3----------------------|
|--------------------------|--4-----------------------|-------------------------|
 
 
  E  E  E  E  E  E  E  E     E  E   E  E   E   E   Q     
|--------------------6-----|--------11--8--10------18----|
|--------4-----3--------6--|--8----------------11--------|
|-----0-----5-----3--------|-----8-----------------------|
|--------------------------|-----------------------------|
|--3-----------------------|-----------------------------|
|--------------------------|-----------------------------|
 
 
   E   E  E   E  E  E  E  E     E  E   E  E   E   E   Q            
|--18-------------------6-----|--------11--8--10------18----|-----||
|--------------------------6--|--8----------------11--------|-----||
|----------8------7-----------|-----8-----------------------|-----||
|-------------10-----8--------|-----------------------------|-----||
|-----------------------------|-----------------------------|-----||
|------11---------------------|-----------------------------|-----||
 
 
 
 
Duration Legend
---------------
W - whole
H - half
Q - quarter
E - 8th
S - 16th
T - 32nd
X - 64th
. - note dotted
|-n-|  - n-tuplets
 
 
Tablature Legend
----------------
L - tied note
x - dead note
g - grace note
(n) - ghost note
> - accentuded note
NH - natural harmonic
AH - artificial harmonic
TH - tapped harmonic
SH - semi harmonic
PH - pitch harmonic
h - hammer on
p - pull off
b - bend
br - bendRelease
pb - preBend
pbr - preBendRelease
brb - bendReleaseBend
\n/ - tremolo bar dip
\n - tremolo bar dive
-/n - tremolo bar Release up
/n\ - tremolo bar inverted dip
/n - tremolo bar return
-\n - tremolo bar Release down
S - shift slide
s - legato slide
/ -  slide into from below or out of upwards
\ -  slide into from above or out of downwards
~ - vibrato
W - wide vibrato
tr - tril'
TP - tremolo picking
T - tapping
S - slap
P - pop
< - fade in
^ - brush up
v - brush down





Comments


Popular Scary Kids Scaring Kids tabs & chords
My Darkest Hour Bass Tabs
Star Crossed 2 Bass Tabs
The Only Medicine Bass Tabs
Watch Me Bleed Chords
A Breath Of Sunshine Tabs
Degenerates Tabs
Degenerates Intro Tabs
Just A Taste Tabs
Whats Up Now Intro Tabs
Watch Me Bleed Ukulele


Song lyrics



↑ Back to top | Tablatures and chords are parodies/interpretations of the original songs. You may use it for private study, scholarship, research or language learning purposes only
© 2014 AZChords.com Contact us | Privacy policy | DMCA | Add/correct tabs | Request tabs | Top 50 tabs