>
 >
The Only Medicine 2

The Only Medicine 2 Guitar Tabs

Scary Kids Scaring Kids - The Only Medicine 2 chords, tabs, tablatures, lyrics

Guitar lessons | Add/correct | Request | Top 50 tabs Artists:  A B C D E F G H I J K L M N O P Q R S T U V W X Y Z 0-9

The Only Medicine 2 Guitar Tabs – Scary Kids Scaring Kids

CD, Sheet music, Poster

Do you like The Only Medicine 2? Share with your friends now
Bass TabsBass Tabs v2TabsTabs v2Tabs v3Tabs v4Tabs v5
-----------------------------------------------------------------------------
               Scary kids scaring kids - the only medicine                   
-----------------------------------------------------------------------------
Riff 1

e|---------------------------------------------------------------------------|
B|---------------------------------------------------------------------------|
G|----------------4----------------------------------------------------------|
D|----7p4-6p4-7p4---4-7p4-6h7p6----------------------------------------------|
A|-44---------------------------7/9------------------------------------------|
D|-44------------------------------------------------------------------------|
PM ..                

e|---------------------------------------------------------------------------|
B|---------------------------------------------------------------------------|
G|----------------4----------------------------------------------------------|
D|----7p4-6p4-7p4---4-7p4-6h7p6----------------------------------------------|
A|-44---------------------------7\5------------------------------------------|
D|-44------------------------------------------------------------------------|
PM ..

e|---------------------------------------------------------------------------|
B|---------------------------------------------------------------------------|
G|----------------4----------------------------------------------------------|
D|----7p4-6p4-7p4---4-7p4-6h7p6----------------------------------------------|
A|-0----------------------------7/9------------------------------------------|
D|-0-------------------------------------------------------------------------|

e|---------------------------------------------------------------------------|
B|---------------------------------------------------------------------------|
G|----------------4----------------------------------------------------------|
D|----7p4-6p4-7p4---4-7p4-6h7p6----------------------------------------------|
A|-00---------------------------7/9------------------------------------------|
D|-00------------------------------------------------------------------------|
PM .. 

Riff 2

e|---------------------------------------------------------------------------|
B|---------------------------------------------------------------------------|
G|---------------------------------------4-----------------------------------|
D|-----------7p6-------------------7p6-----7p6-------------------------------|
A|-444444444-------7/9-9v-44444444-------------5v----------------------------|
D|-444444444-----0--------44444444-----0-------------------------------------|
PM .........     .        ........     .

e|---------------------------------------------------------------------------|
B|---------------------------------------------------------------------------|
G|---------------------------------------------------------------------------|
D|-----------7p6-------------------------------------------------------------|
A|-000000000-------7/9-9v-0000000-2~~~---------------------------------------|
D|-000000000-----0--------0000000-2~~~---------------------------------------|
PM .........     .        .......

Chorus

e|---------------------------------------------------------------------------|
B|---------------------------------------------------------------------------|
G|---------------------------------------------------------------------------|
D|-----------4-44----------7---6---------------7p6---------------------------|
A|-0-00-0-00-2-22-2-22-4-----------7---4---7-------7-------------------------|
D|-0-00-0-00------2-22-4-4---4---4---4---4---4-------------------------------|
PM   ..   ..   ..   ..   .   .   .   .   .   . 

e|---------------------------------------------------------------------------|
B|---------------------------------------------------------------------------|
G|---------------------------------------------------------------------------|
D|-----------4-44----------7---6---------------7p6---------------------------|
A|-0-00-0-00-2-22-2-22-4-----------7---4---7-------7-------------------------|
D|-0-00-0-00------2-22-4-4---4---4---4---4---4-------------------------------|
PM   ..   ..   ..   ..   .   .   .   .   .   . 

e|---------------------------------------------------------------------------|
B|---------------------------------------------------------------------------|
G|---------------------------------------------------------------------------|
D|-----------4-44----------7---6---------------7p6---------------------------|
A|-0-00-0-00-2-22-2-22-4-----------7---4---7-------7-------------------------|
D|-0-00-0-00------2-22-4-4---4---4---4---4---4-------------------------------|
PM   ..   ..   ..   ..   .   .   .   .   .   . 

e|---------------------------------------------------------------------------|
B|---------------------------------------------------------------------------|
G|---------------------------------------------------------------------------|
D|-2-222222-4-44-------------------------------------------------------------|
A|-0-000000-2-22-2-22-4------------------------------------------------------|
D|---------------2-22-4------------------------------------------------------|
PM   ......   ..   ..

Riff 4

e|---------------------------------------------------------------------------|
B|---------------------------------------------------------------------------|
G|---------------------------------------------------------------------------|
D|---------------------------------------------------------------------------|
A|-444444-22-444444444444-22-444444444444-22---------------------------------|
D|-444444-22-444444444444-22-444444444444-22---------------------------------|

Rhythm under solo

e|---------------------------------------------------------------------------|
B|---------------------------------------------------------------------------|
G|---------------------------------------------------------------------------|
D|---------------------------------------------------------------------------|
A|-44444444444444-00000000000000-22222222222222-444444-777-222---------------|
D|-44444444444444-00000000000000-22222222222222-444444-777-222---------------|
PM  .............  .............  .............  .....  ..  ..

Solo

e|---------------------------------------------------------------------------|
B|-14-14-14---17---------------------------------14-17-17-19-19--------------|
G|-17b17b17b-----16-14-16-16b-14-----------14-16-----------------------------|
D|-------------------------------16--14-16-----------------------------------|
A|---------------------------------------------------------------------------|
D|---------------------------------------------------------------------------|

e|-17p14-------17p14h17p14-------17p14h17p14---------------------------------|
B|-------17p14-------------17p14-------------17p14-/19-19-19-14-17-14--------|
G|--------------------------------------------------------------------16v----|
D|---------------------------------------------------------------------------|
A|---------------------------------------------------------------------------|
D|---------------------------------------------------------------------------|

e|---------------------------------------------------------------------------|
B|-------------------14----14-17-14-17-19------------------------------------|
G|-14-13-14-16-14-16----16---------------------------------------------------|
D|---------------------------------------------------------------------------|
A|---------------------------------------------------------------------------|
D|---------------------------------------------------------------------------|

e|-17-14-14-17-14-14-17/19-17-14-14-17-14-14-17-14-14-17-14-17-14-17---------|
B|---------------------------------------------------------------------------|
G|---------------------------------------------------------------------------|
D|---------------------------------------------------------------------------|
A|---------------------------------------------------------------------------|
D|---------------------------------------------------------------------------|

e|-19-16-16-19-16-16-19-16-20b-20b-20b-20b-17-14v----------------------------|
B|---------------------------------------------------------------------------|
G|---------------------------------------------------------------------------|
D|---------------------------------------------------------------------------|
A|---------------------------------------------------------------------------|
D|---------------------------------------------------------------------------|

Chorus (*)

e|---------------------------------------------------------------------------|
B|---------------------------------------------------------------------------|
G|---------------------------------------------------------------------------|
D|-----------4-44----------7---6---------------7p6---------------------------|
A|-0-00-0-00-2-22-2-22-4-----------7---4---7-------7-------------------------|
D|-0-00-0-00------2-22-4-4---4---4---4---4---4-------------------------------|
PM   ..   ..   ..   ..   .   .   .   .   .   . 

e|---------------------------------------------------------------------------|
B|---------------------------------------------------------------------------|
G|---------------------------------------------------------------------------|
D|-----------4-44----------7---6---------------7p6---------------------------|
A|-0-0000000-2-22-2-22-4-----------7---4---7-------7-------------------------|
D|-0-0000000------2-22-4-4---4---4---4---4---4-------------------------------|
PM   .......   ..   ..   .   .   .   .   .   . 

e|---------------------------------------------------------------------------|
B|---------------------------------------------------------------------------|
G|---------------------------------------------------------------------------|
D|-----------4-44------------------------------------------------------------|
A|-0-00-0-00-2-22-2-22-4---( B R E A K )-------------------------------------|
D|-0-00-0-00------2-22-4-----------------------------------------------------|
PM   ..   ..   ..   ..    

e|---------------------------------------------------------------------------|
B|---------------------------------------------------------------------------|
G|---------------------------------------------------------------------------|
D|-2-222222-4-44-------------------------------------------------------------|
A|-0-000000-2-22-2-22-4------------------------------------------------------|
D|---------------2-22-4------------------------------------------------------|
PM   ......   ..   ..

Outro

e|---------------------------------------------------------------------------|
B|---------------------------------------------------------------------------|
G|----------------4----------------------------------------------------------|
D|----7p4-6p4-7p4---4-7p4-6h7p6----------------------------------------------| 
A|-44---------------------------7/9------------------------------------------|
D|-44------------------------------------------------------------------------|
PM ..                

e|---------------------------------------------------------------------------|
B|---------------------------------------------------------------------------|
G|----------------4----------------------------------------------------------|
D|----7p4-6p4-7p4---4-7p4-6h7p6----------------------------------------------| 
A|-44---------------------------7/9------------------------------------------|
D|-44------------------------------------------------------------------------|
PM ..                

e|---------------------------------------------------------------------------|
B|---------------------------------------------------------------------------|
G|----------------4----------------------------------------------------------|
D|----7p4-6p4-7p4---4-7p4-6h7p6----------------------------------------------| 
A|-44---------------------------7/9------------------------------------------|
D|-44------------------------------------------------------------------------|
PM ..                

e|---------------------------------------------------------------------------|
B|---------------------------------------------------------------------------|
G|----------------4----------------------------------------------------------|
D|----7p4-6p4-7p4---4-7p4-6h7p6----------------------------------------------|
A|-44---------------------------7/9v~~~~~~~~~~~~~~~~~~~~~~~~~~~~~~~~---------|
D|-44------------------------------------------------------------------------|
PM ..

===============================================================================

Song order

riff 1                              x1
riff 2                              x4
Chorus                              x1
riff 1            (play last bar twice)                          
riff 2  (play last 2 bars, then all X3)
Chorus                              x1
riff 4                              x1 
solo      (with "rhythm under solo")x1
Chorus (*)                          x1
Outro  (while guitar 2 plays Riff 4)x1

===============================================================================

Key

| /  slide up
| \  slide down
| h  hammer-on
| p  pull-off
| ~  vibrato
| +  harmonic
| x  Mute note
===============================================================================





Comments


Popular Scary Kids Scaring Kids tabs & chords
My Darkest Hour 1 Bass Tabs
Notorious Thugs Bass Tabs
The Only Medicine 2 Bass Tabs
Holding On Chords
A Breath Of Sunshine Tabs
Empty Glasses Tabs
World As We Know It Tabs
World As We Know It Intro Tabs
Holding On Ukulele
Watch Me Bleed Ukulele


Song lyrics



↑ Back to top | Tablatures and chords are parodies/interpretations of the original songs. You may use it for private study, scholarship, research or language learning purposes only
© 2014 AZChords.com Contact us | Privacy policy | DMCA | Add/correct tabs | Request tabs | Top 50 tabs