» » »

Scary Kids Scaring Kids, The Only Medicine Tabs (ver.3)

Artists:  A B C D E F G H I J K L M N O P Q R S T U V W X Y Z # 

The Only Medicine Tabs (ver.3)

Scary Kids Scaring Kids Tabs
Rating:
0/5 (0 votes)
The Only Medicine lessons Tabs too difficult? Try these video lessons and learn fast
                Intro x4                               Ending1,3,4  Ending 2
E|------------------------------------|-----------|----------|
B|------------------------------------|-----------|----------|
G|-----------3p0-2p0-2-3-5p0-3p0-2h3p2|-----------|----------|
D|--5-5---/---------------------------|----3s5----|----3s1---|
A|--5-5--/----------------------------|-----------|----------|
E|--5-5-/-----------------------------|-----------|----------|
    * *
Verse x3
E-------------------------------------------------------------|
B-------------------------------------------------------------|
G-----------------3p2-----------------------3p2-5p3p2p0-------|
D---------------------3s5-------------------------------------|
A--5-5-555-5-555-------------5-5-555-5-555--------------------|
E--5-5-555-5-555-------------5-5-555-5-555--------------------|
     * *** * ***               * *** * ***                      
                                                                
E-------------------------------------------------------------|
B-------------------------------------------------------------|
G-----------------3p2-----------------------------------------|
D---------------------3s5-5-----------------------------------|
A--1-1-111-1-111-------------1-1-111-1-111--3-3-333-3-333-----|
E--1-1-111-1-111-------------1-1-111-1-111--3-3-333-3-333-----|
     * *** * ***               * *** * ***    * *** * ***

Chorus 
E-------------------------------------------------------------|x3
B-------------------------------------------------------------|
G-------------5-55------------3p0 2p0-------------2-----------|
D--1-11-1-11--5-55--3-33--------------3p0-----3p0---3p0-------|
A--1-11-1-11--3-33--3-33--5---------------5p0-----------------|
E--1-11-1-11--------3-33--5-----------------------------------|
     **   **    **    **

E-------------------------------------------------------------|
B-------------------------------------------------------------|
G--3----------------------------------------------------------|
D--3-33-3-33--5-55--2-22--5-----------------------------------|
A--1-11-1-11--3-33--0-00--5-----------------------------------|
E-------------------------5-----------------------------------|
     **   **    **    **

Intro x2
Verse x2
Chorus

E-------------------------------------------------------------|x4
B-------------------------------------------------------------|
G-------------------------------------------------------------|
D--3-3--5-55-55-5-555-----------------------------------------|
A--3-3--5-55-55-5-555-----------------------------------------|
E--3-3--5-55-55-5-555-----------------------------------------|

SOLO

E-----------------------------------------|
B---15--15--15--18------------------------|
G---17b-17b-17b-----17-15-17-17fb-15------|
D------------------------------------17---|
A-----------------------------------------|
E-----------------------------------------|

E---------------------------------|
B---------------15-18-18b-18bv----|
G----------15-17------------------|
D-15-17-19------------------------|
A---------------------------------|
E---------------------------------|
  (   pick  )      (     Pick      )    (      Pick      )
E-18p15------------18p15-18p15----------18p15-18p15-----------|
B-------18p15------------------18p15----------------18p15-----|
G-------------------------------------------------------------|
D-------------------------------------------------------------|
A-------------------------------------------------------------|
E-------------------------------------------------------------|

E--15--15--15-------------------|
B--18b-18b-18b-15-----18--------|
G-----------------17b----17-15--|
D-------------------------------|
A-------------------------------|
E-------------------------------|

E-------------------------------------------|
B--------------------15----15---------------|
G--15-14-15-17-15-17----17----18-15-18-18b--|
D-------------------------------------------|
A-------------------------------------------|
E-------------------------------------------|
   ( Pick )  ( Pick )        ( Pick )  ( Pick )  ( Pick )
E--15--------15--------------15--------15--------15-------18b---|
B-----18p15-----18p15--18b------18p15-----18p15-----18p15-------|
G---------------------------------------------------------------|
D---------------------------------------------------------------|
A---------------------------------------------------------------|
E---------------------------------------------------------------|
   (   pick w/pick   ) (pick with pick)
E--18p15h18p15h18p15h8-20p17h20p17h20p17--20b-20b-20b18-------|
B-------------------------------------------------------20----|
G-------------------------------------------------------------|
D-------------------------------------------------------------|
A-------------------------------------------------------------|
E-------------------------------------------------------------|

Chorus x3
Intro x4
            

comments powered by Disqus
↑ Back to top | Scary Kids Scaring Kids Tabs for The Only Medicine. Lyrics for acoustic guitar and electric guitar. Tablatures and chords are parodies/interpretations of the original songs. You may use it for private study, scholarship, research or language learning purposes only