» » »

The Bright Side Of Suffering Tabs (ver.1)

Artists:  A B C D E F G H I J K L M N O P Q R S T U V W X Y Z # 

The Bright Side Of Suffering Tabs (ver.1)

Scary Kids Scaring Kids
Rating:
0/5 (0 votes)

Hard to play? Try these video lessons and learn fast.
                The Bright Side of Suffering

E----------------------------------------------------------------------------|
B----------------------------------------------------------------------------|
G----------------------------------------------------------------------------|
D---0---9---9---9---9----8---8---8---8---6--6--6-----------------------------|
A---0---6---6---6---6----6---6---6---6---6--6--6-----------------------------|
D---0---6--6---6---6-----6---6---6---6---6--6--6-----------------------------|

E----------------------------------------------------------------------------|
B----------------------------------------------------------------------------|
G----------------------------------------------------------------------------|
D----------------------------------------------------------------------------|
A-8-6-6-7-7-10p8p7h8------7------5h7p5h7------7-5-3*-------------------------|
D--------------------0-0----0-0----------0-0---------------------------------|

E--1-0------------------5-4--------------------------------------------------|
B------4-2--2-2h4------------7-5-5-5h7---------------------------------------|
G----------------------------------------7-----------------------------------|
D----------------------------------------------------------------------------|
A----------------------------------------------------------------------------|
D----------------------------------------------------------------------------|

E-------------------------------------------------------------------|
B-------------------------------------------------------------------|
G-------------------------------------------------------------------|
D---10-10---10-10-----10-10--10-10------10-8v-8-8p6h8v--------------|
A---10-10---x---x-----10-10---x---x --------------------------------|
D---10-10---x---x-----10-10---x---x --------------------------------|

E----------------------------------------------------------------------------|
B-12-12-12-12--11-11-11-10-10-10-10-10-10------------------------------------|
G----------------------------------------------------------------------------|
D------------------------------------------------------8-10-8-10-8-----------|
A----------------------------------------------------------------------------|
D----------------------------------------------------------------------------|

My first tab so im pretty sure some of its gonna be wrong. figure out the order on your own
            
Hard to play? Try these video lessons and learn fast. | Correct




comments powered by Disqus
↑ Back to top | Tablatures and chords are parodies/interpretations of the original songs. You may use it for private study, scholarship, research or language learning purposes only