>
 >
Just A Taste

Just A Taste Guitar Tabs

Scary Kids Scaring Kids - Just A Taste chords, tabs, tablatures, lyrics

Guitar lessons | Add/correct | Request | Top 50 tabs Artists:  A B C D E F G H I J K L M N O P Q R S T U V W X Y Z 0-9

Just A Taste Guitar Tabs – Scary Kids Scaring Kids

CD, Sheet music, Poster

Do you like Just A Taste? Share with your friends now
Tabs

Tabs for the song: Just a Taste by Scary Kids Scaring Kids
Please rate and let me know if you have any corrections. Thank you.

Not my favorite song from SKSK, but it deserves to be tabbed out. Since no 
one else is going to do it, I figured I might as well do it myself.


Tuning: Drop D (D A D G B E)


Intro/Verse
Guitar 1:
E||----------------------------------------------------------------------------------------------|
B||----------------------------------------------------------------------------------------------|
G||----------------------------------------------------------------------------------------------|
D||-4-4-4-4-4-4-4-4-4-4-4-4-5-5-5-5-5-5-5-5-5-5-5-5-4-4-4-4-4-4-4-4-4-4-4-4-5-5-5-5-5-5-5-5-5-5--|
A||-4-4-4-4-4-4-4-4-4-4-4-4-5-5-5-5-5-5-5-5-5-5-5-5-4-4-4-4-4-4-4-4-4-4-4-4-5-5-5-5-5-5-5-5-5-5--|
D||-4-4-4-4-4-4-4-4-4-4-4-4-5-5-5-5-5-5-5-5-5-5-5-5-4-4-4-4-4-4-4-4-4-4-4-4-5-5-5-5-5-5-5-5-5-5--|
    . . . . . . . . . . . . . . . . . . . . . . . . . . . . . . . . . . . . . . . . . . . . . .


E||-----------------------------------------------------------|
B||-----------------------------------------------------------|
G||-----------------------------------------------------------|
D||-7-7-9-9-9-9-9-9-9-9-9-9-9-9-7-7-7-7-7-7-7-7-7-7-7-7-4--5--|
A||-7-7-9-9-9-9-9-9-9-9-9-9-9-9-7-7-7-7-7-7-7-7-7-7-7-7-4--5--|
D||-7-7-9-9-9-9-9-9-9-9-9-9-9-9-7-7-7-7-7-7-7-7-7-7-7-7-4--5--|
    . . . . . . . . . . . . . . . . . . . . . . . . . .


Guitar 2:
E||------------|------------|------------|------------|
B||-----5~-----|------------|-----5~-----|------------|
G||-----6~-----|-----7~-----|-----6~-----|------7~----|
D||-----7~-----|-----7~-----|-----7~-----|------7~----|
A||------------|------------|------------|------------|
D||------------|------------|------------|------------|


E||------------|------------|------------|
B||------------|-----5~-----|-----7~-----|
G||-----6~-----|-----6~-----|-----7~-----|
D||-----7~-----|-----7~-----|-----7~-----|
A||------------|------------|------------|
D||------------|------------|------------|


Guitar 3:
E||------------------------------------------|
B||--10--------------------------------------|
G||-----11-11---------9/11\9-----------------| x2
D||------------7/9-12--------12-11-12-(11)---|
A||------------------------------------------|
D||------------------------------------------|



Verse
Guitar 1:
E||----------------------------------------------------------------------------------------------|
B||----------------------------------------------------------------------------------------------|
G||----------------------------------------------------------------------------------------------|
D||-4-4-4-4-4-4-4-4-4-4-4-4-5-5-5-5-5-5-5-5-5-5-5-5-4-4-4-4-4-4-4-4-4-4-4-4-5-5-5-5-5-5-5-5-5-5--|
A||-4-4-4-4-4-4-4-4-4-4-4-4-5-5-5-5-5-5-5-5-5-5-5-5-4-4-4-4-4-4-4-4-4-4-4-4-5-5-5-5-5-5-5-5-5-5--|
D||-4-4-4-4-4-4-4-4-4-4-4-4-5-5-5-5-5-5-5-5-5-5-5-5-4-4-4-4-4-4-4-4-4-4-4-4-5-5-5-5-5-5-5-5-5-5--|
    . . . . . . . . . . . . . . . . . . . . . . . . . . . . . . . . . . . . . . . . . . . . . .


E||-----------------------------------------------------------|
B||-----------------------------------------------------------|
G||-----------------------------------------------------------|
D||-7-7-9-9-9-9-9-9-9-9-9-9-9-9-7-7-7-7-7-7-7-7-7-7-7-7-4--5--|
A||-7-7-9-9-9-9-9-9-9-9-9-9-9-9-7-7-7-7-7-7-7-7-7-7-7-7-4--5--|
D||-7-7-9-9-9-9-9-9-9-9-9-9-9-9-7-7-7-7-7-7-7-7-7-7-7-7-4--5--|
    . . . . . . . . . . . . . . . . . . . . . . . . . .


E||--------|---------------|
B||--------|---------------|
G||--------|---------------|
D||---7~---|------9-0------|
A||---7~---|------9-0------|
D||---7~---|------9-0------|


Guitar 2:
E||------------|------------|------------|------------|
B||-----5~-----|------------|-----5~-----|------------|
G||-----6~-----|-----7~-----|-----6~-----|------7~----|
D||-----7~-----|-----7~-----|-----7~-----|------7~----|
A||------------|------------|------------|------------|
D||------------|------------|------------|------------|


E||------------|------------|------------|------------|
B||------------|-----5~-----|-----7~-----|------------|
G||-----6~-----|-----6~-----|-----7~-----|------6~----|
D||-----7~-----|-----7~-----|-----7~-----|------7~----|
A||------------|------------|------------|------------|
D||------------|------------|------------|------------|


Guitar 3:
E||-------------------------------------|
B||--10---------------------------------|
G||-----11-11---------9/11\9------------| x3
D||------------7/9-12--------12-11-12---|
A||-------------------------------------|
D||-------------------------------------|



Chorus
Guitar 1:
E||--------|--------|--------|--------|---------|
B||--------|--------|--------|--------|---------|
G||--------|--------|--------|--------|---------|
D||---0~---|---9~---|---5~---|---7~---|---5-7---|
A||---0~---|---9~---|---5~---|---7~---|---5-7---|
D||---0~---|---9~---|---5~---|---7~---|---5-7---|


E||--------|--------|--------|--------|----------------------------------|
B||--------|--------|--------|--------|----------------------------------|
G||--------|--------|--------|--------|----------------------------------|
D||---0~---|---9~---|---5~---|---7~---|---9-----9-9-9--4------4-4-4-5~---|
A||---0~---|---9~---|---5~---|---7~---|---9-----9-9-9--4------4-4-4-5~---|
D||---0~---|---9~---|---5~---|---7~---|---9-----9-9-9--4------4-4-4-5~---|


Guitar 2:
E||---10~---|---9~---|---------|------9~---|---------|---------|---10~---|---9~---|
B||---------|--------|---10~---|-----------|---10~---|---------|---------|--------|
G||---------|--------|---------|---11------|---------|---11~---|---------|--------|
D||---------|--------|---------|-----------|---------|---------|---------|--------|
A||---------|--------|---------|-----------|---------|---------|---------|--------|
D||---------|--------|---------|-----------|---------|---------|---------|--------|


E||---10~---|---9~---|---------|------9~---|---10~---|----9~---|---------|--------|
B||---------|--------|---10~---|-----------|---------|---------|---10~---|--------|
G||---------|--------|---------|---11------|---------|---------|---------|---11~--|
D||---------|--------|---------|-----------|---------|---------|---------|--------|
A||---------|--------|---------|-----------|---------|---------|---------|--------|
D||---------|--------|---------|-----------|---------|---------|---------|--------|


E||---------|---------|---------|
B||---------|---------|----7~---|
G||---11~---|---------|----7~---|
D||---------|---11~---|----7~---|
A||---------|---------|---------|
D||---------|---------|---------|


Guitar 3:
E||--------------------------------------------------|
B||--------------10--7--10----------------10--7------|
G||--6-7-9-7-9-7--------------6-7-9-7-9-7--------9---| x5
D||--------------------------------------------------|
A||--------------------------------------------------|
D||--------------------------------------------------|


E||-------------------------------------|
B||--10---------------------------------|
G||-----11-11---------9/11\9------------| x2
D||------------7/9-12--------12-11-12---|
A||-------------------------------------|
D||-------------------------------------|



Interlude
Guitar 3:
E||----0-----0-----0-----0-----|
B||----------------------------|
G||------7-----7-----7-----7---|
D||--7-----7-----7-----7-------|
A||----------------------------|
D||----------------------------|



Verse
Guitar 1:
E||--------------------------------------------------------------------------|
B||--------------------------------------------------------------------------|
G||--------------------------------------------------------------------------|
D||-5-5-5-5-5-5-5-5-5-5-5-5-4-4-4-4-4-4-4-4-4-4-4-4-5-5-5-5-5-5-5-5-5-5-7-7--|
A||-5-5-5-5-5-5-5-5-5-5-5-5-4-4-4-4-4-4-4-4-4-4-4-4-5-5-5-5-5-5-5-5-5-5-7-7--|
D||-5-5-5-5-5-5-5-5-5-5-5-5-4-4-4-4-4-4-4-4-4-4-4-4-5-5-5-5-5-5-5-5-5-5-7-7--|
    . . . . . . . . . . . . . . . . . . . . . . . . . . . . . . . . . . . .


E||-------------------------------------------------------|
B||-------------------------------------------------------|
G||-------------------------------------------------------|
D||-9-9-9-9-9-9-9-9-9-9-9-9-7-7-7-7-7-7-7-7-7-7-7-7-4--5--|
A||-9-9-9-9-9-9-9-9-9-9-9-9-7-7-7-7-7-7-7-7-7-7-7-7-4--5--|
D||-9-9-9-9-9-9-9-9-9-9-9-9-7-7-7-7-7-7-7-7-7-7-7-7-4--5--|
    . . . . . . . . . . . . . . . . . . . . . . . .


E||--------|--------|--------|--------|--------|--------|--------|
B||--------|--------|--------|--------|--------|--------|--------|
G||--------|--------|--------|--------|--------|--------|--------|
D||---7~---|---0~---|---9~---|---5~---|---7~---|---0~---|---9~---|
A||---7~---|---0~---|---9~---|---5~---|---7~---|---0~---|---9~---|
D||---7~---|---0~---|---9~---|---5~---|---7~---|---0~---|---9~---|


E||-------------------------------------------------------|
B||-------------------------------------------------------|
G||---------------------------------------------------x2--|
D||-5-5-5-5-5-5-5-5-5-5-5-5-7-7-7-7-7-7-7-7-7-7-7-7-------|
A||-5-5-5-5-5-5-5-5-5-5-5-5-7-7-7-7-7-7-7-7-7-7-7-7-------|
D||-5-5-5-5-5-5-5-5-5-5-5-5-7-7-7-7-7-7-7-7-7-7-7-7-------|
    . . . . . . . . . . . . . . . . . . . . . . . .

E||--------------------------|
B||--------------------------|
G||--------------------------|
D||-7-7-7-7-7-7-7-7-7-7-7-7--|
A||-7-7-7-7-7-7-7-7-7-7-7-7--|
D||-7-7-7-7-7-7-7-7-7-7-7-7--|
    . . . . . . . . . . . .


Guitar 2:
E||------------|------------|------------|------------|------------|------------|------------|
B||------------|------5~----|------------|------------|-----5~-----|-----7~-----|-----5~-----|
G||-----7~-----|------6~----|------7~----|-----6~-----|-----6~-----|-----7~-----|-----6~-----|
D||-----7~-----|------7~----|------7~----|-----7~-----|-----7~-----|-----7~-----|-----7~-----|
A||------------|------------|------------|------------|------------|------------|------------|
D||------------|------------|------------|------------|------------|------------|------------|


E||------------|------------|------------|------------|------------|------------|
B||-----7~-----|------5~----|------7~----|-----5~-----|-----7~-----|-----5~-----|
G||-----7~-----|------6~----|------7~----|-----6~-----|-----7~-----|-----6~-----|
D||-----7~-----|------7~----|------7~----|------------|-----7~-----|-----7~-----|
A||------------|------------|------------|------------|------------|------------|
D||------------|------------|------------|------------|------------|------------|


E||------------|------------|------------|------------|
B||-----7~-----|------5~----|------7~----|-----5~-----|
G||-----7~-----|------6~----|------7~----|-----6~-----|
D||-----7~-----|------7~----|------7~----|------------|
A||------------|------------|------------|------------|
D||------------|------------|------------|------------|


Guitar 3:
E||---10-9----10-9----10----9-10---|
B||--------10------10--------------|
G||--------------------------------| x2
D||--------------------------------|
A||--------------------------------|
D||--------------------------------|


E||-------------------------------------|
B||--10---------------------------------|
G||-----11-11---------9/11\9------------| x12
D||------------7/9-12--------12-11-12---|
A||-------------------------------------|
D||-------------------------------------|



Interlude
Guitar 3:
E||----0-----0-----0-----0-----|
B||----------------------------|
G||------7-----7-----7-----7---|
D||--7-----7-----7-----7-------|
A||----------------------------|
D||----------------------------|



Chorus
Guitar 1:
E||--------|--------|--------|---------|
B||--------|--------|--------|---------|
G||--------|--------|--------|---------|
D||---9~---|---5~---|---7~---|---5-7---|
A||---9~---|---5~---|---7~---|---5-7---|
D||---9~---|---5~---|---7~---|---5-7---|


E||--------|--------|--------|--------|--------------------------------------------------|
B||--------|--------|--------|--------|--------------------------------------------------|
G||--------|--------|--------|--------|--------------------------------------------------|
D||---0~---|---9~---|---5~---|---7~---|---9-9-9-9-9-9-9------4----4-4-4-5------5-5-5-7---|
A||---0~---|---9~---|---5~---|---7~---|---9-9-9-9-9-9-9------4----4-4-4-5------5-5-5-7---|
D||---0~---|---9~---|---5~---|---7~---|---9-9-9-9-9-9-9------4----4-4-4-5------5-5-5-7---|


E||---------------------------------------------------------|
B||---------------------------------------------------------|
G||---------------------------------------------------------|
D||--7-7-7-9----9-9-9-4----4-4-4-5------5-5-5-7------7-7-7--|
A||--7-7-7-9----9-9-9-4----4-4-4-5------5-5-5-7------7-7-7--|
D||--7-7-7-9----9-9-9-4----4-4-4-5------5-5-5-7------7-7-7--|


E||---------------------------|
B||---------------------------|
G||---------------------------|
D||--5h7----7----77---5---4---|
A||--5h7----7----77---5---4---|
D||--5h7----7----77---5---4---|


Guitar 2:
E||---10~--|---9~--|--------|-----------|---10~--|---9~---|
B||--------|-------|---10~--|---10------|--------|--------|
G||--------|-------|--------|------11---|--------|--------| x2
D||--------|-------|--------|-----------|--------|--------|
A||--------|-------|--------|-----------|--------|--------|
D||--------|-------|--------|-----------|--------|--------|


E||--------|--------|--------|--------|--------|--------|--------|---9~--|---10~--|
B||---10~--|--------|--------|--------|--------|--------|--------|-------|--------|
G||--------|---11~--|---11~--|--------|--------|--------|---11~--|-------|--------|
D||--------|--------|--------|---11~--|---12~--|---11~--|--------|-------|--------|
A||--------|--------|--------|--------|--------|--------|--------|-------|--------|
D||--------|--------|--------|--------|--------|--------|--------|-------|--------|


E||---14~--|---12~--|---10~--|---9~--|--------|--------|-------|
B||--------|--------|--------|-------|---10~--|--------|-------|
G||--------|--------|--------|-------|--------|---11~--|---9~--|
D||--------|--------|--------|-------|--------|--------|-------|
A||--------|--------|--------|-------|--------|--------|-------|
D||--------|--------|--------|-------|--------|--------|-------|


Guitar 3:
E||--------------------------------------------------|
B||--------------10--7--10----------------10--7------|
G||--6-7-9-7-9-7--------------6-7-9-7-9-7--------9---| x5
D||--------------------------------------------------|
A||--------------------------------------------------|
D||--------------------------------------------------|



Outro
Guitar 1:
E||----------------------------------|
B||----------------------------------|
G||----------------------------------| (Fade out)
D||-0--0--00--0--0---5--5--55--5--5--|
A||-0--0--00--0--0---5--5--55--5--5--|
D||-0--0--00--0--0---5--5--55--5--5--|


Guitar 2:
E||-----------|-----------|-----------|
B||-----------|-----------|-----------|
G||----11~----|-----9~----|----12~----| (Fade out)
D||-----------|-----------|-----------|
A||-----------|-----------|-----------|
D||-----------|-----------|-----------|


Guitar 3:
E||--------------------------------------------------|
B||--------------10--7--10----------------10--7------|
G||--6-7-9-7-9-7--------------6-7-9-7-9-7--------9---| (Fade out)
D||--------------------------------------------------|
A||--------------------------------------------------|
D||--------------------------------------------------|




Tablature Legend
----------------
 h   - hammer-on
 p   - pull-off
 b   - bend
 r   - release bend
 *   - pinch harmonic
 '   - natural harmonic
 x   - mute note
 .   - palm mute
 /   - slide down
 \   - slide up





Comments


Popular Scary Kids Scaring Kids tabs & chords
The Only Medicine Bass Tabs
The Only Medicine 2 Bass Tabs
Holding On Chords
Empty Glasses 1 Tabs
Sink And Die Intro Tabs
Snake Devil Tabs
Star Crossed Intro 1 Tabs
The Only Medicine 4 Tabs
The Only Medicine 5 Tabs
Watch Me Bleed Acoustic Intro Tabs


Song lyrics



↑ Back to top | Tablatures and chords are parodies/interpretations of the original songs. You may use it for private study, scholarship, research or language learning purposes only
© 2014 AZChords.com Contact us | Privacy policy | DMCA | Add/correct tabs | Request tabs | Top 50 tabs