» » »

Scary Kids Scaring Kids, Faces Tabs (ver.2)

Artists:  A B C D E F G H I J K L M N O P Q R S T U V W X Y Z # 

Faces Tabs (ver.2)

Scary Kids Scaring Kids Tabs
Rating:
0/5 (0 votes)
Faces lessons Tabs too difficult? Try these video lessons and learn fast
                -------------------------------------------------------------------------------
			     Faces - Scary Kids Scaring Kids
-------------------------------------------------------------------------------

Tuning:drop d
Epic song from an underrated band. enjoy :)
Intro
e|-----------------------------------------------------------------------------|
B|-----------------------------------------------------------------------------|
G|----4-3-4--------------------4-3-4-5/7-8h10p8-11p10p8-10p8\75----------------|
D|-1------------------------1--------------------------------------------------|
A|-100------0-000-000-000---100------------------------------------------------|
d|0100-0-0--0-000-000-000--0100-0-0--------------------------------------------|
  . .. . .  . ... ... ...  . .. . .

e|-----------------------------------------------------------------------------|
B|------------------------------------12-14151717br-151415~--------------------|
G|----4-3-4--------------------4-3-4-------------------------------------------|
D|-1------------------------1--------------------------------------------------|
A|-100------0-000-000-000---100------------------------------------------------|
d|0100-0-0--0-000-000-000--0100-0-0--------------------------------------------|


  Verse 1
e|----------------------------------------------------------------------------------------------|
B|----------------------------------------------------------------------------------------------|
G|----------------------------------------------------------------------------------------------|
D|1--111111-1-1-1p0-3--333333-3-3-3p1-5-------------------0-------------------------------------|
A|1--111111-1-1-1p0-3--333333-3-3-3p1-5-9-7--11-11-11-10~-0-9-7--9h11p9h11-7h9p7h9p7h9-11-12-11~|
d|1--111111-1-1-1p0-3--333333-3-3-3p1-5--0-00------------00--0-00-------------------------------|
                                      
e|------------------------------------------------------------------------------------|
B|------------------------------------------------------------------------------------|
G|------------------------------------------------------------------------------------|
D|1--111111-1-1-1p0-3--333333-3-3-3p1-5-------------------0---------------------------|
A|1--111111-1-1-1p0-3--333333-3-3-3p1-5-9-7--11-11-11-10~-0-9-7--9h11p9h11-7h9p7h9p7h9|
d|1--111111-1-1-1p0-3--333333-3-3-3p1-5--0-00------------00--0-00---------------------|
					                   
   Prechorus 1
e|---------------------------------------------------------------------------|
B|---------------------------------------------------------------------------|
G|---------------------------------------------------------------------------|
D|9-99-999-9-99-999-11-1111-111111-11-1111-111111-6-66-666-6-66-666-7--------|
A|9-99-999-9-99-999-11-1111-111111-11-1111-111111-6-66-666-6-66-666-7--------|
d|9-99-999-9-99-999-11-1111-111111-11-1111-111111-6-66-666-6-66-666-7--------|

  Chorus 1
e|---------------------------------------------------------------------------|
B|---------------------------------------------------------------------------|
G|---------------------------------------------------------------------------|
D|9-99-999-5-55-555-7-77-777-7-77-777   5-55-555-5-55-555-5-55-555-5-55-555--|
A|9-99-999-5-55-555-7-77-777-7-77-777 x35-55-555-5-55-555-5-55-555-5-55-555--|
d|9-99-999-5-55-555-7-77-777-7-77-777   5-55-555-5-55-555-5-55-555-5-55-555--|

 Post-chorus 1
e|-------------------------------------------------------------------------------|
B|------------------------------------12-14151717br-151415~----------------------|
G|----4-3-4--------------------4-3-4---------------------------------------------|
D|-1------------------------1----------------------------------------------------|
A|-100------0-000-000-000---100--------------------------------------------------|
d|0100-0-0--0-000-000-000--0100-0-0----------------------------------------------|


 Verse 2
e|----------------------------------------------------------------------------------------------|
B|----------------------------------------------------------------------------------------------|
G|----------------------------------------------------------------------------------------------|
D|1--111111-1-1-1p0-3--333333-3-3-3p1-5-------------------0-------------------------------------|
A|1--111111-1-1-1p0-3--333333-3-3-3p1-5-9-7--11-11-11-10~-0-9-7--9h11p9h11-7h9p7h9p7h9-11-12-11~|
d|1--111111-1-1-1p0-3--333333-3-3-3p1-5--0-00------------00--0-00-------------------------------|
					                                      
e|------------------------------------------------------------------------------------|
B|------------------------------------------------------------------------------------|
G|------------------------------------------------------------------------------------|
D|1--111111-1-1-1p0-3--333333-3-3-3p1-5-------------------0---------------------------|
A|1--111111-1-1-1p0-3--333333-3-3-3p1-5-9-7--11-11-11-10~-0-9-7--9h11p9h11-7h9p7h9p7h9|
d|1--111111-1-1-1p0-3--333333-3-3-3p1-5--0-00------------00--0-00---------------------|
                                         . ..            .   . ..


 Prechorus 2
e|--------------------------------------------------------------------------------------|
B|--------------------------------------------------------------------------------------|
G|--------------------------------------------------------------------------------------|
D|9-99-999-9-99-999-11-1111-111111-11-1111-111111-6-66-666-6-66-666-6-66-666-4-44-444---|
A|9-99-999-9-99-999-11-1111-111111-11-1111-111111-6-66-666-6-66-666-6-66-666-4-44-444---|
d|9-99-999-9-99-999-11-1111-111111-11-1111-111111-6-66-666-6-66-666-6-66-666-4-44-444---|

e|---------------------------------------------------------------------------|
B|---------------------------------------------------------------------------|
G|---------------------------------------------------------------------------|
D|9-99-999-9-99-999-11-1111-111111-11-1111-111111-6-66-666-6-66-666-7--------|
A|9-99-999-9-99-999-11-1111-111111-11-1111-111111-6-66-666-6-66-666-7--------|
d|9-99-999-9-99-999-11-1111-111111-11-1111-111111-6-66-666-6-66-666-7--------|

Chorus 2
e|---------------------------------------------------------------------------|
B|---------------------------------------------------------------------------|
G|---------------------------------------------------------------------------|
D|9-99-999-5-55-555-7-77-777-7-77-777   5-55-555-5-55-555-5-55-555-5-55-555--|
A|9-99-999-5-55-555-7-77-777-7-77-777 x35-55-555-5-55-555-5-55-555-5-55-555--|
d|9-99-999-5-55-555-7-77-777-7-77-777   5-55-555-5-55-555-5-55-555-5-55-555--|

Post-chorus 2
e|---------------------------------------------------------------------------|
B|---------------------------------------------------------------------------|
G|----4-3-4/12---------------------------------------------------------------|
D|-1-------------------------------------------------------------------------|
A|-100-----------------------------------------------------------------------|
d|0100-0-0-------------------------------------------------------------------|
  . .. . .
Bridge
(this part is played under drums, synth and loud vocals so it was extremely hard to tab
 and there is probably some mistakes).
e|---------------------------------------------------------------------------|
B|---------------------------------------------------------------------------|
G|10-9-0-12-0-10-0-9-0-10-0-7h9p7h10p7h9h7-----------------------------------|
D|---------------------------------------------------------------------------|
A|---------------------------------------------------------------------------|
d|---------------------------------------------------------------------------|

e|---------------------------------------------------------------------------|
B|---------------------------------------------------------------------------|
G|10-9-0-12-0-10-0-9-0-10-0-9h10p9-12p10p9-10p9------------------------------|
D|---------------------------------------------------------------------------|
A|---------------------------------------------------------------------------|
d|---------------------------------------------------------------------------|

e|---------------------------------------------------------------------------|
B|---------------------------------------------------------------------------|
G|10-9-0-12-0-10-0-9-0-10-0-7h9p7h10p7h9h7-----------------------------------|
D|---------------------------------------------------------------------------|
A|---------------------------------------------------------------------------|
d|---------------------------------------------------------------------------|

e|---------------------------------------------------------------------------|
B|---------------------------------------------------------------------------|
G|10-9-0-12-0-10-0-9-0-10-0-10h12p10-13p12p10-12p10--------------------------|
D|---------------------------------------------------------------------------|
A|---------------------------------------------------------------------------|
d|---------------------------------------------------------------------------|

e|---------------------------------------------------------------------------|
B|---------------------------------------------------------------------------|
G|13-12-0-15-0-13-0-12-0-13-0-12h13p12h15p12h13p12---------------------------|
D|---------------------------------------------------------------------------|
A|---------------------------------------------------------------------------|
d|---------------------------------------------------------------------------|

e|---------------------------------------------------------------------------|
B|---------------------------------------------------------------------------|
G|13-12-0-15-0-13-0-12-0-13-0-13h15p13-16p15p13-15p13------------------------|
D|---------------------------------------------------------------------------|
A|---------------------------------------------------------------------------|
d|---------------------------------------------------------------------------|

e|---------------------------------------------------------------------------|
B|---------------------------------------------------------------------------|
G|13-12-0-15-0-13-0-12-0-13-0-12h13p12h15p12h13p12---------------------------|
D|---------------------------------------------------------------------------|
A|---------------------------------------------------------------------------|
d|---------------------------------------------------------------------------|

e|---------------------------------------------------------------------------|
B|---------------------------------------------------------------------------|
G|10-9-0-12-0-10-0-9-0-10-0-10h12p10-13p12p10-12p10--------------------------|
D|---------------------------------------------------------------------------|
A|---------------------------------------------------------------------------|
d|---------------------------------------------------------------------------|

e|---------------------------------------------------------------------------|
B|---------------------------------------------------------------------------|
G|13-12-0-15-0-13-0-12-0-13-0-12h13p12h15p12h13p12---------------------------|
D|---------------------------------------------------------------------------|
A|---------------------------------------------------------------------------|
d|---------------------------------------------------------------------------|

e|---------------------------------------------------------------------------|
B|---------------------------------------------------------------------------|
G|13-12-0-15-0-13-0-12-0-13-0-13h15p13-16p15p13-15p13------------------------|
D|---------------------------------------------------------------------------|
A|---------------------------------------------------------------------------|
d|---------------------------------------------------------------------------|

e|---------------------------------------------------------------------------|
B|---------------------------------------------------------------------------|
G|13-12-0-15-0-13-0-12-0-13-0-12h13p12h15p12h13p12---------------------------|
D|---------------------------------------------------------------------------|
A|---------------------------------------------------------------------------|
d|---------------------------------------------------------------------------|

e|---------------------------------------------------------------------------|
B|---------------------------------------------------------------------------|
G|13-12-0-13-12-10-9~--------------------------------------------------------|
D|---------------------------------------------------------------------------|
A|---------------------------------------------------------------------------|
d|---------------------------------------------------------------------------|

 Chorus 3
e|---------------------------------------------------------------------------|
B|---------------------------------------------------------------------------|
G|---------------------------------------------------------------------------|
D|9-99-999-5-55-555-7-77-777-7-77-777   5-55-555-5-55-555-5-55-555-5-55-555--|
A|9-99-999-5-55-555-7-77-777-7-77-777 x35-55-555-5-55-555-5-55-555-5-55-555--|
d|9-99-999-5-55-555-7-77-777-7-77-777   5-55-555-5-55-555-5-55-555-5-55-555--|

 Outro
e|---------------------------------------------------------------------------|
B|---------------------------------------------------------------------------|
G|---------------------------------------------------------------------------|
D|9-99-999-5-55-555-7-77-777-7-77-777   5-55-555-5-55-555-5-55-555-5-55-555--|
A|9-99-999-5-55-555-7-77-777-7-77-777 x35-55-555-5-55-555-5-55-555-5-55-555--|
d|9-99-999-5-55-555-7-77-777-7-77-777   5-55-555-5-55-555-5-55-555-5-55-555--|


************************************

| /   slide up
| \   slide down
| h   hammer-on
| p   pull-off
| ~   vibrato
| +   harmonic
| x   Mute note
| b   Bend
| pb  Pre-bend
| br  Bend release
| pbr Pre-bend release
| brb Bend release bend
| .   Palm Mute
************************************
            
Submit corrections

comments powered by Disqus
↑ Back to top | Scary Kids Scaring Kids Tabs for Faces. Lyrics for acoustic guitar and electric guitar. Tablatures and chords are parodies/interpretations of the original songs. You may use it for private study, scholarship, research or language learning purposes only